Tabs

Everything else musical of Wildhearts and erstwildhearts origin.

Tabs

Postby miche.cs » 5th Apr 06, 14:30

Okay so for those of us not talented enough to be able to listen to records and pick stuff out, anyone got any SG5 tab? In particular If I Were You I'd Kiss Me.

Had a look about online and could only find tab (and rather good tab at that) for Church of the Broken Hearted
miche.cs
 
Posts: 2
Joined: 5th Apr 06, 14:29

Postby Ean » 5th Apr 06, 18:48

Ok...

Code: Select all
INSiDE OUT

SiLVER GiNGER 5

INTRO:

|-------3-----2-------0---0---|
|---3-----3-----3---3---3---3-|
|-0---0-----0-----0-----------| x8
|-----------------------------|
|-----------------------------|
|-----------------------------|

  G         D         C B C B   x4

VERSE 1:

G
Walking around today I found
    Em               C
The sun,the moon and chinatown
    D              B                    Em
But after three or four go down there's you
           C              G
And you'll always stay in view
    D
The great incentive

G
Now and then the seconds tick
       Em                 C
But it sometimes hits you way too quick
    D                    B               Em
And sticks you down with air as thick as glue
        C               G
And the timing's always screwed
    D       Am
For maximum effect, I guess it's what it likes to do

CHORUS:
                C      G
I feel a little inside out
D
But that's ok baby
                C      G
I feel a little inside out
D
We'll make it through baby
             A
Oh but those times, you can taste the edge

e---------------------------
B---3-----------------3-----
G---------------------------
D---------------------------
A---2-----------------3-----
E---------------------------            D
The copper sweet that never leaves your teeth

VERSE 2:

G
Nothing new or special here
     Em                 C
It's common around this time of year
     D                 B                Em
It's just like getting shit on your new shoes
     C                 G
It's my old friend the blues
   D
Or raining mondays

G
Left for good, well now it's back
     Em       C
That insecure insomniac
      D                 B                Em
Feels just like running out of crack can do
          C               G
And there is no fast lane through
  D                 Am
I know because I've been there more occasions than a few

CHORUS:
                C      G
I feel a little inside out
D
But that's ok baby
                C      G
I feel a little inside out
D
We'll make it through baby
             A
Oh but those times, you can taste the edge

e---------------------------
B---3-----------------3-----
G---------------------------
D---------------------------
A---2-----------------3-----
E---------------------------            D
The copper sweet that never leaves your teeth

SOLO:

        C        G        D         D
e----------------------------------------------||
B---------------------------------------------O||
G-4s5-5-7--4s5-5-7--7-5-4-2---7-9-11-13-11-9---||
D----------------------------------------------||
A-2s3-3-5--2s3-3-5--5-3-2-0---5-7--9-10--9-7--O||
E----------------------------------------------||

CHORUS:
                C      G
I feel a little inside out
D
But that's ok baby
                C      G
I feel a little inside out
D
We'll make it through baby
             A
Oh but those times, you can taste the edge

e---------------------------
B---3-----------------3-----
G---------------------------
D---------------------------
A---2-----------------3-----
E---------------------------            D
The copper sweet that never leaves your teeth
Last edited by Ean on 30th Dec 07, 20:36, edited 3 times in total.
Ean Ü

"I have to go along with all this reclusive genius stuff... she's going to be very upset when she finds out I'm a reclusive wanker."
User avatar
Ean
Moderator
 
Posts: 4040
Joined: 10th Feb 06, 14:44
Location: Just next to my confuser

Postby Ean » 5th Apr 06, 18:52

How about...

Code: Select all
Monkey Zoo Tab

SliverGinger5

Regular tuning.

Intro

[E]              [G#]             [A]              [A]           SL/
e-----------------|----------------|----------------|-----------------||
B-----------------|----------------|----------------|----------------O||
G-9---------------|8---------9---11|11----------9-8-|9-----------(8)--||
D-----------------|----------------|----------------|-----------------||
A-7---------------|6---------7---9-|9-----------7-6-|7-----------(6)-O||
E-----------------|----------------|----------------|-----------------||
                                                                 [1ST TIME ONLY]
                                                                 

[E]    [B]             [F#]     [A]              [E]
Sex, it sort of fills a gap that opens right back up
     [B]        [F#]          [B]             [E]   
It's never quite enough, let's try mix in some love
    [B]              [F#]       [A]            [E]
That sort of makes it work, it's sort of making sense
    [B]              [F#]
But you're not making sense
  [B]            [G#]      [C#]
I guess we got it wrong somehow
[A]       [E]        [B]   [C#]
Hello, that deja vu is back again
           [A]           [B]
And this is where I say I love you

       [E]
Monkey see, see, see
       [C#]
Monkey do, do, do
        [B]           [A]
It's so hard, it's so very hard
       [E]            [C#]              [A] 
It's a mystery how we keep on seeing it through
   [C#]   [B][B]
We just do,
   [A]          [B]   
we just do here at the monkey...

[E]
zoo
[INTRO SECTION. NO REPEAT]

[E]          [B]            [F#]       [A]          [E]
Death, though going on world-wide still takes us by surprise
[B]         [F#]      [B]            [G#]
OK you had to go, but I bet you didn't know
          [C#]   [A]      [E]          [B]
That you'd take a piece of me away with you
        [C#]     [A]           [B]
Now it's too damn late to say I love you

       [E]
Monkey see, see, see
       [C#]
Monkey do, do, do
        [B]           [A]
It's so hard, it's so very hard
       [E]            [C#]              [A] 
It's a mystery how we keep on seeing it through
   [C#]   [B][B]
We just do,
   [A]          [B]    [E]
we just do here at the monkey zoo




BRIDGE

(let ring)
|G#   |     |G    |     |C    |     |F    |     |

|Bb   |     |Eb   |     |B    |     |     |     |   


[E]     [B]            [F#]
Life, it stinks of many things,
   [B]                    [E]   
it links the fools and the kings
     [B]             [F#]
Like pigs without the brains,
     [B]             [G#]
like shit without the stains
   [C#]    [A]       [E]       [G#]
So play the game that everybody plays
            [C#]          [F#]
You'd better pucker up and open wide
    [A]            [B]
and take it cos' we love you
[B]
Love you,


BOOGALOO

       [E]
Monkey see, see, see
       [C#]
Monkey do, do, do
        [B]           [A]
It's so hard, it's so very hard
       [E]            [C#]             [A]
It's a mystery how we keep on seeing it through
        [C#]  [B][B]
We just do,
        [E]
we just see, see, see
       [C#]
Monkey do, do, do
        [B]          [A]
It's so hard, it's so very hard
       [E]           [C#]              [A]
It's a mystery how we keep on seeing it through
   [C#]  [B][B]
We just do,
   [A]                [B]    [A] [A] [E]
we just do here at the monkey zoo
Ean Ü

"I have to go along with all this reclusive genius stuff... she's going to be very upset when she finds out I'm a reclusive wanker."
User avatar
Ean
Moderator
 
Posts: 4040
Joined: 10th Feb 06, 14:44
Location: Just next to my confuser

Postby Lord Iffy Boatrace » 5th Apr 06, 20:09

great work!

How about I Wanna Be New?
:D
Lord Iffy Boatrace
 
Posts: 84
Joined: 20th Feb 06, 12:49
Location: East Kilbride, Scotland

Postby Ross » 6th Apr 06, 09:03

Lord Iffy Boatrace wrote:great work!

How about I Wanna Be New?
:D


Find the tab for Sabbath Bloody Sabbath, turn it backwards and speed it up! :wink:
Image
Ross
 
Posts: 600
Joined: 1st Mar 06, 16:28
Location: Leicester UK

Postby Lord Iffy Boatrace » 6th Apr 06, 20:24

I can play sabbath bloody sabbath but its downtuned a step and a half to C#. Heavy as FUK!! :twisted:
Lord Iffy Boatrace
 
Posts: 84
Joined: 20th Feb 06, 12:49
Location: East Kilbride, Scotland

Awesome

Postby miche.cs » 7th Apr 06, 14:08

Cheers guys. If anyone has Divine Imperfection that'd be rocking.
miche.cs
 
Posts: 2
Joined: 5th Apr 06, 14:29

Postby SuperJake » 7th Jan 07, 14:48

Any chance of a sonic shake tab?
SuperJake
 
Posts: 157
Joined: 7th Mar 06, 22:08

Postby chris_j » 15th Jan 07, 00:15

Hiya, I can play Divine Imperfection and Sonic Shake ... I've written myself a todo note to write them out when I get some time to sit down with a guitar and go through them.
In an ideal world there'd be no time for ideals.

Image
chris_j
 
Posts: 91
Joined: 10th Feb 06, 12:44

Postby SuperJake » 15th Jan 07, 22:08

Cool, if you can do that that'd be fucking awesome :D , cheers.
SuperJake
 
Posts: 157
Joined: 7th Mar 06, 22:08

Postby wildsam6o » 18th Aug 08, 18:50

chris_j wrote:Hiya, I can play Divine Imperfection and Sonic Shake ... I've written myself a todo note to write them out when I get some time to sit down with a guitar and go through them.


any luck on those?
wildsam6o
 
Posts: 463
Joined: 5th Feb 08, 18:14
Location: Southend on sea

Postby VladDracii » 23rd Aug 08, 12:58

Code: Select all
Sonic Shake, here we go, isn't anything too strainious but hats off to the bass playing, incredible and not overdone...

Intro
-------------------------------------------------------
-2-3p2-3p2----2----3p2-3p2-3p2----2-2------------------
-2-2-2-2-2----2----2-2-2-2-2-2----2-2------------------
-2-2-2-2-2----2----2-2-2-2-2-2----2-2------------------
-0-0-0-0-0----0----0-0-0-0-0-0----0-0------------------
-------------------------------------------------------

Shake!

---------------------------------------------------
---------3---0-----------3---0---------------------
-----0---2---0-------0---2---0---2--2--------------
-2---0---0---0---2---0---0---0---2--2--------------
-0---x---0-------0---x---0-------0--0--------------
-----3---------------3-----------------------------

Verse

A5       E5         G5         D5 
Laughing Boy, he laughed so hard he scared the girls in town

    G# slide A   G# slide A   G# slide A  G#5 slide A
With his tune     in, turn     on, super       sonic        SHAKE!


Pre-Chorus

G  D
Oh yeah, she was making the contact

E A
Alright, 'til they exploded on impact

   Bm   F#                    C#m  D
She was al - ways when she could have be al - right


Chorus

A5          E5             G5      D5
Once you got it too easy it's twice as hard to take the pain, so...


----------------------------------------------------------------------
----------------------------------------------------------------------
-5---5-5----5---4-4---3-3---------------------------------------------
-x---x-x----x---x-x---x-x---------------------------------------------
-3---3-3----3---2-2---1-1---------------------------------------------
----------------------------------------------------------------------
all aboard the super sonic... shake, shake, shake, shake
Those of you Facebookers may be wondering what Mr. Robin Guy is up to? http://www.facebook.com/robinguydrummer?ref=ts
VladDracii
 
Posts: 296
Joined: 23rd Apr 08, 18:13
Location: Eastbourne

Re: Tabs

Postby Benno » 1st Aug 10, 23:18

Anyone know the tabs for Girls Are Better Than Boys? I want to play it at my local's acoustic night...!
Benno
 
Posts: 2
Joined: 1st Aug 10, 23:11

Re: Tabs

Postby Ean » 3rd Aug 10, 17:25

This enough to get you started? ;)

Code: Select all
Girls Are Better Than Boys

Silver Ginger 5

Written by Ginger


Regular Tuning


INTRO
(Play about with this riff for all the bits where you can hear it over the A chord.
The riff over the E chord in the first/third line of each verse is similar too
but dropped down a string)

e---|-----------------|-----------------|-----------------|-----------------|
B---|-----------------|-----------------|-----------------|-----------------|
G---|---------------2-|-2-------2-------|---------2-----2-|-2-------2-------|
D-2-|-2---4---2---4-2-|-2---4---2---4-2-|-2---4---2---4-2-|-2---4---2---4-2-|
A-0-|-0---0---0---0-0-|-0---0---0---0-0-|-0---0---0---0-0-|-0---0---0---0-0-|
E---|-----------------|-----------------|-----------------|-----------------|


[A]
e-----------------|-----------------|-----------------|-----------------|
B-----------------|-----------------|-----------------|-----------------|
G---------------2-|-2-------2-------|---------2-----2-|-2-------2-------|
D-2---4---2---4-2-|-2---4---2---4-2-|-2---4---2---4-2-|-2---4---2---4-2-|
A-0---0---0---0-0-|-0---0---0---0-0-|-0---0---0---0-0-|-0---0---0---0-0-|
E-----------------|-----------------|-----------------|-----------------|


             A                                        E
They get the washing clean in the same machine as you soil it
          F#                       D                             A      E E E E E E
They pay attention to you when you think you've got something to say
                A                                                    E
They've got the sweetest feet and they don't piss on the seat of the toilet
            F#                         D                        A       B5 B5 C5 C5 C#5 C#5
They live a few more years and they've still got hair when it's grey
D
Don't wanna see the guys (don't wanna see the guys)
B
Just wanna look in her eyes (just wanna look in her eyes)
F#                  D                     A
I like girls ‘cause girls are better than boys


e-----------------|-----------------|-----------------|-----------------|
B-----------------|-----------------|-----------------|-----------------|
G---------------2-|-2-------2-------|---------2-----2-|-2-------2-------|
D-2---4---2---4-2-|-2---4---2---4-2-|-2---4---2---4-2-|-2---4---2---4-2-|
A-0---0---0---0-0-|-0---0---0---0-0-|-0---0---0---0-0-|-0---0---0---0-0-|
E-----------------|-----------------|-----------------|-----------------|


              A                                                    E
They give you sleepless nights and their breath smells good in the morning
              F#                        D                       A      E E E E E E
And they look better than you when they dress in your favourite gear
               A                                              E
They make your sickness fun and your mum was the one you were born in
         F#                       D                      A             B5 B5 C5 C5 C#5 C#5
And they don't pick fights in the street for a couple of beers
D
And when they're naked you see (and when they're naked you see)
B
That Mother Nature agrees (that Mother Nature agrees)
F#                  D                     A
I like girls ‘cause girls are better than boys


|A       |        |E       |        |        |        |A       |        |

|A       |        |E       |        |        |        |A       | B5 B5 C5 C5 C#5 C#5|


[D]
They get the party swinging, you know that I'm right
[B]
Only a coward would hurt them and only a fool would desert them
F#                  D                     A          B5 B5 C5 C5 C#5 C#5
I like girls ‘cause girls are better than boys
D
I like girls ‘cause girls are better than
B
I like girls ‘cause girls are better than
F#                  D                     A          B5 B5 C5 C5 C#5 C#5
I like girls ‘cause girls are better than boys
D
I like girls ‘cause girls are better than
B
I like girls ‘cause girls are better than
F#
I like girls ‘cause girls are better than
B
I like girls ‘cause girls are better than
D                   E                     A
I like girls ‘cause girls are better than boys



Tab by Ean (ean.coombs@gmail.com)
Ean Ü

"I have to go along with all this reclusive genius stuff... she's going to be very upset when she finds out I'm a reclusive wanker."
User avatar
Ean
Moderator
 
Posts: 4040
Joined: 10th Feb 06, 14:44
Location: Just next to my confuser

Re: Tabs

Postby VladDracii » 4th Aug 10, 01:57

Beat me to it Ean! Curse my polarized sleep pattern!
Those of you Facebookers may be wondering what Mr. Robin Guy is up to? http://www.facebook.com/robinguydrummer?ref=ts
VladDracii
 
Posts: 296
Joined: 23rd Apr 08, 18:13
Location: Eastbourne

Next

Return to Other Wildhearts Related Bands

Who is online

Users browsing this forum: No registered users and 1 guest

cron