Guitar Tabs

Albums, singles, songs and general Wildhearts banter

Postby VladDracii » 14th Aug 09, 15:21

Sure, gimme a bit then

Anything else while I've actually picked the instrument up?
Those of you Facebookers may be wondering what Mr. Robin Guy is up to? http://www.facebook.com/robinguydrummer?ref=ts
VladDracii
 
Posts: 296
Joined: 23rd Apr 08, 18:13
Location: Eastbourne

Postby VladDracii » 14th Aug 09, 16:03

Code: Select all
Chord I can't name...
-0--
-2--
-1--
-2--
-2--
-0--

Fig. 2
--------------------------------------
-2---2-2-2-2----2-2-2----2-2-2--------
-2---2-2-2-2----1-1-1----0-0-0--------
-2---2-2-2-2----2-2-2----2-2-2--------
-0---0-0-0-0----0-0-0----0-0-0--------
--------------------------------------

Final Chord...
-6--
-8--
-7--
-6--
-8--
-6--




     A          E          A         D
when I am lonely, when I am blue, when I am crying tears over you

      A      F#m        Bm  E          A     D  D  D  A    E
I just get rolling,    I just get by,    sky chaser high, hi-hi-hi-high



      A  Asus4  A          E [Chord?] E     A          D     Dm
ten in the morning 'til late in the night,       whatever time, feeling all right

       A      F#m          Bm   E         A        D   D  D   A    [fig 2]
I don't get lonely,    I don't even try,   I just get high - sky chaser high



  D D D D       D D D D         Dm Dm Dm Dm     Dm Dm Dm Dm   A     D     A   [fig 2]
I hope    and I pray     that maybe       one day          I'll see it as legally mine

    D D D D       D D D D      Dm Dm Dm Dm   Dm Dm Dm Dm
but Blair    don't got a prick,   and Major       sucks dick,

B           E E E              F
isn't no wonder it's seen as a crime?


        Bb             F            Bb      D#   D#m
so if you're thinking of someone to kill, just take a line, just take a pill

        Bb   Gm          Cm  F         Bb    D# D# D# Bb
you don't want no prison,   you don't wanna die,    get sky chaser high, hi-hi-hi-high

      Bb    D# D# D# Bb      [Ending chord]
sky chaser high, hi-hi-hi-high...



Okay this is half based on the live version, so slight chord variations such as the Asus4 probably aren't in the recorded version.

This version's far superior however.
Last edited by VladDracii on 18th Jun 10, 14:49, edited 1 time in total.
Those of you Facebookers may be wondering what Mr. Robin Guy is up to? http://www.facebook.com/robinguydrummer?ref=ts
VladDracii
 
Posts: 296
Joined: 23rd Apr 08, 18:13
Location: Eastbourne

Postby VladDracii » 14th Aug 09, 16:03

**The live version on the Great White Monkey album, I should add
Those of you Facebookers may be wondering what Mr. Robin Guy is up to? http://www.facebook.com/robinguydrummer?ref=ts
VladDracii
 
Posts: 296
Joined: 23rd Apr 08, 18:13
Location: Eastbourne

Postby VladDracii » 14th Aug 09, 18:54

Also, I dunno if this has been mentioned previously, but how about we make the guitar tab section sticky?

Thoughts?
Those of you Facebookers may be wondering what Mr. Robin Guy is up to? http://www.facebook.com/robinguydrummer?ref=ts
VladDracii
 
Posts: 296
Joined: 23rd Apr 08, 18:13
Location: Eastbourne

Postby Sarc » 14th Aug 09, 19:24

Its a possibility,though there are fair amount of stickys at the moment so just bare with us, things are a foot.
Not sent from my fucking iphone.

The Wicked Mod of the South.

Go here you might like it.
http://z6.invisionfree.com/Eureka_Machines/index.php
User avatar
Sarc
 
Posts: 2822
Joined: 25th Apr 07, 21:27
Location: Brighton

Chutzpah tabs

Postby Sarc » 3rd Sep 09, 19:42

I'll just leave this here for now, I have most of them worked out I just need to straighten out a few bits and hopefully they'll all be up by the end of the weekend if all goes to plan.

Code: Select all
The Jackson Whites

The Wildhearts

E = C
A = F
D = Bb
G = Eb
B = G
e = C 


Intro   
Eb-4--4---4--2/7-7-7-4/10-10-10----
Bb-4--4---4--2/7-7-7-4/10-10-10----
F--2--2---2--0/5-5-5-2/8--8--8-----


Verse Guitar 1 - 
Bb-------------------------0-0-0-0--
F--3-3-3-3-3-3-3-3-0-0-0-0----------

Guitar 2 - 
c----14________15-14________________

Neither Ghost nor a transient spirit
Just a face staring out another window
Looking through all the lights of Brooklyn
Where the dark has a million other faces

Eb-4--4---4--2/7-7-7-4/10-10-10----
Bb-4--4---4--2/7-7-7-4/10-10-10----
F--2--2---2--0/5-5-5-2/8--8--8-----

I I I like getting lonely
I I I miss this feeling
I I I feel no fear in being
Lonely, lonely – I wanna be lonely

Chorus
Eb--7------2-----------------|---4-----------------
Bb--7------2-----------------|---4------------2----
F---5------0-----------------|---2------------2----
C----------------------------|----------------0----
I wanna be alone just like the, the Jackson Whites

Eb--7------2--------|---4--------------------------
Bb--7------2--------|---4------------5-------------
F---5------0--------|---2------------5-------------
C-------------------|----------------3-------------
I feel the apocalypse is Within my sight

Eb--7--------------------|------------------------------9-----------
Bb--7------------4-------|----------5-------------------9--------5--
F---5------------4-------|----------5-------------------7--------5--
C----------------2-------|----------3-------------------0--------3--
Mother when you see your blue eyed boy would you still love him now?

Eb----------|--------------------------------|----------|-------------------------
Bb---7------|------7----7----4--2--5---------|---7------|------7----7----4--2--5--
F----7------|------5----4----2--0--5---------|---7------|------5----4----2--0--5--
C----5------|----------------------3---------|---5------|----------------------3--
The city ain’t no place for laying down There’s better wage in hell than here right now

Eb--------|-4--4---4--2/7-7-7-4/10-10-10----
Bb--7-----|-4--4---4--2/7-7-7-4/10-10-10----
F---7-----|-2--2---2--0/5-5-5-2/8--8--8-----
C---5-----|---------------------------------

And damn, if I’m not a dying man
I lie dying in a hole, I’m a dying man
I lie dying in a hole, I’m a

Verse Guitar 1 - 
Bb-------------------------0-0-0-0--
F--3-3-3-3-3-3-3-3-0-0-0-0----------

Guitar 2 - 
c----14________15-14________________

Never graced as a true companion
I burn circles in the forest of reason
I break off and I penetrate alone
The full weight of the emptiness calling

Eb-4--4---4--2/7-7-7-4/10-10-10----
Bb-4--4---4--2/7-7-7-4/10-10-10----
F--2--2---2--0/5-5-5-2/8--8--8-----

I I I wanna be nowhere I I I wanna tell you something
I I I have a barrel of opinions
Lonely, lonely – I am everlone, everlone

I wanna be alone just like the The Jackson Whites
I feel the apocalypse is Within my sight
Mother when you see your blue eyed boy
Would you still love him now?

The city ain’t no place for laying down
There’s better wage in hell than here right now

And damn, if I’m not a dying man I lie dying in a hole
I’m a dying man I lie dying in a hole
I’m a dying man I lie dying in a hole
I’m a dying man I lie dying in a hole I’m a

I wanna be alone just like the The Jackson Whites
I feel the apocalypse is Within my sight
Mother when you see your blue eyed boy Would you still love him now?

The city ain’t no place for laying down
There’s better wage in hell than here right now

And damn, if I’m not a dying man I lie dying in a hole
I’m a dying man I lie dying in a hole
I’m a dying man I lie dying in a hole
I’m a dying man I lie dying in a hole
I’m a
Last edited by Sarc on 3rd Sep 09, 22:35, edited 1 time in total.
Not sent from my fucking iphone.

The Wicked Mod of the South.

Go here you might like it.
http://z6.invisionfree.com/Eureka_Machines/index.php
User avatar
Sarc
 
Posts: 2822
Joined: 25th Apr 07, 21:27
Location: Brighton

Postby SiN1758 » 3rd Sep 09, 21:36

If you could work out / tab John Of Violence, it's just possible you'd be my favourite person ever - can't quite get my head (nor fingers) round it!
SiN1758
 
Posts: 202
Joined: 18th Apr 07, 13:38
Location: Herts

Postby Sarc » 3rd Sep 09, 21:38

Lucky for you thats gonna be one of the first ones up then isn't it, I'tll be up tomorrow at some point.
Not sent from my fucking iphone.

The Wicked Mod of the South.

Go here you might like it.
http://z6.invisionfree.com/Eureka_Machines/index.php
User avatar
Sarc
 
Posts: 2822
Joined: 25th Apr 07, 21:27
Location: Brighton

Postby SiN1758 » 3rd Sep 09, 21:48

Sarc wrote:Lucky for you thats gonna be one of the first ones up then isn't it, I'tll be up tomorrow at some point.


That is very lucky! Cheers dude much appreciated - look forward to actually being able to play it the whole way thru, rather than just picking at the bits that I (sort of) know :lol:
SiN1758
 
Posts: 202
Joined: 18th Apr 07, 13:38
Location: Herts

Postby Sarc » 3rd Sep 09, 22:32

Code: Select all
Plastic Jebus

E = C
A = F
D = Bb
G = Eb
B = G
e = C 

Intro

Guitar 1 C--0-0-0-0-0-0-0-0-0-0-0-0-0-0-0-0-0-0-0-0-0-0-0

Guitar 2 Bb------------4-----4----------------

Guitar 1
Bb-2-2-4/5--x2-2-4/5--x2-2-4/5--x2-2-4-2-5---|
G--2-2-4/5--x2-2-4/5--x2-2-4/5--x2-2-4-2-5---|
C--0-0-2/3--x0-0-2/3--x0-0-2/3--x0-0-2-0-3---|

Bb-2-2-4/5--x2-2-4/5--x2-2-4/5--x2-5-2-4-2-3-|
F--2-2-4/5--x2-2-4/5--x2-2-4/5--x2-5-2-4-2-3-|
C--0-0-2/3--x0-0-2/3--x0-0-2/3--x0-3-0-2-0-1-|

Guitar 2
Eb-9--------7---------6-------7-6----4-------|-9---------7---------6--------7--6--7--------

Verse
Guitar 1 Bb---2---- Guitar 2 ----(12)----
         F----2----          ------------
         C----0----          ------------
I’ve been looking for a new direction found the cheapest way of selling out
You’ve got the science down to perfection so do what you want Do what you will But do it now

Guitar 1
Bb-2-2-4/5--x2-2-4/5--x2-2-4/5--x2-2-4-2-5---|
G--2-2-4/5--x2-2-4/5--x2-2-4/5--x2-2-4-2-5---|
C--0-0-2/3--x0-0-2/3--x0-0-2/3--x0-0-2-0-3---|

Bb-2-2-4/5--x2-2-4/5--x2-2-4/5--x2-5-2-4-2-3-|
F--2-2-4/5--x2-2-4/5--x2-2-4/5--x2-5-2-4-2-3-|
C--0-0-2/3--x0-0-2/3--x0-0-2/3--x0-3-0-2-0-1-|

Guitar 2
Eb-9--------7---------6-------7-6----4-------|-9---------7---------6--------7--6--7--------

Bb-----7-----------------------------------------|--2---
G------7-----------------------------------------|--2---
C------5-----------------------------------------|--0---
You’ll learn something, Your cred means nothing
The world wants nothing but hits Until it makes you sick

Bb-2---------------------------------|--7--------4------
G--2---------------------------------|--7--------4------
C--0---------------------------------|--5--------2------
‘cause all we are, are broken pieces
A sacred heart on a plastic Jesus We mean nothing, nothing

Bb-2---------------------------------|--7--------4------
G--2---------------------------------|--7--------4------
C--0---------------------------------|--5--------2------
‘cause all we are, are broken pieces a sacred heart on a plastic Jesus

Guitar 2
Eb----13-14---13-----------
Bb----------------15---12--
We mean nothing, nothing, to anyone Just like a plastic Jesus

Guitar 1
Bb-2-2-4/5--x2-2-4/5--x2-2-4/5--x2-2-4-2-5---|
G--2-2-4/5--x2-2-4/5--x2-2-4/5--x2-2-4-2-5---|
C--0-0-2/3--x0-0-2/3--x0-0-2/3--x0-0-2-0-3---|

Bb-2-2-4/5--x2-2-4/5--x2-2-4/5--x2-5-2-4-2-3-|
F--2-2-4/5--x2-2-4/5--x2-2-4/5--x2-5-2-4-2-3-|
C--0-0-2/3--x0-0-2/3--x0-0-2/3--x0-3-0-2-0-1-|


Guitar 2
Eb-9--------7---------6-------7-6----4-------|-9---------7---------6--------7--6--7--------

Guitar 1 C-0------|--5-----|---2-----|--0-------

Guitar 2 c-16-----|--17----|--17-----|--16------
         G----15--|-----14-|-----15--|-----15---

Guitar 1                                                  Guitar 2
Eb------------------------------------------------------|---9-----------
Bb-2----------------------------------------------------|---------------
G--2----------------------------------------------------|---7-----------
C--0----------------------------------------------------|---------------

Eb------------------------------------------------------|---9-----------
Bb-2--5--4-2--5--4--2--5--4--2--2--2--2--2--2--2--2--2--|---------------
G--2--5--4-2--5--4--2--5--4--2--2--2--2--2--2--2--2--2--|---7-----------
C--0--3--2-0--3--2--0--3--2--0--0--0--0--0--0--0--0--0--|---------------


Bb-2---------------------------------|--7--------4------
G--2---------------------------------|--7--------4------
C--0---------------------------------|--5--------2------
‘cause all we are, are broken pieces
A sacred heart on a plastic Jesus We mean nothing, nothing

Bb-2---------------------------------|--7--------4------
G--2---------------------------------|--7--------4------
C--0---------------------------------|--5--------2------
‘cause all we are, are broken pieces a sacred heart on a plastic Jesus

Guitar 2
Eb----13-14---13-----------
Bb----------------15---12--
We mean nothing, nothing, to anyone Just like a plastic Jesus

Guitar 1
Bb-2-2-4/5--x2-2-4/5--x2-2-4/5--x2-2-4-2-5---|
G--2-2-4/5--x2-2-4/5--x2-2-4/5--x2-2-4-2-5---|
C--0-0-2/3--x0-0-2/3--x0-0-2/3--x0-0-2-0-3---|

Bb-2-2-4/5--x2-2-4/5--x2-2-4/5--x2-5-2-4-2-3-|
F--2-2-4/5--x2-2-4/5--x2-2-4/5--x2-5-2-4-2-3-|
C--0-0-2/3--x0-0-2/3--x0-0-2/3--x0-3-0-2-0-1-|
Guitar 2
Eb-9--------7---------6-------7-6----4-------|-9---------7---------6--------7--6--7--------
Not sent from my fucking iphone.

The Wicked Mod of the South.

Go here you might like it.
http://z6.invisionfree.com/Eureka_Machines/index.php
User avatar
Sarc
 
Posts: 2822
Joined: 25th Apr 07, 21:27
Location: Brighton

Postby Sarc » 3rd Sep 09, 23:29

The Only One

Code: Select all
E = C
A = F
D = Bb
G = Eb
B = G
e = C

Bb---------|---------|--0----|--------7--------|
F----0-----|----2----|-------|---0----5----0---|

These are the words that I've saved Saved for the perfect day
But they won’t get used If I keep waiting on you
This is the way that I feel I wish that it wasn't real
But it's more than true I can't keep waiting on you

Eb----------------------------------|---2---------
Bb-4--------------------------------|---2---------
F--4--------------------------------|---0---------
C--2--------------------------------|-------------
So open your eyes and see where I'm standing

G--------------------------3-------|-------------
Eb-------------------------2-------|---2---------
Bb----------------2--------0-------|---2---------
F-----------------2----------------|---0---------
C-----------------0----------------|-------------
Straight in your line of sight so you

Eb----------------------------------|-------------
Bb-----------------5--4-------------|---2---------
F------------------5--4-------------|---2---------
C------------------3--2-------------|---0---------
Should make up your mind Do what it is that you need to

G---3------------
Eb--2------------
Bb--0-------2----
F-----------2----
C-----------0----
‘cause I'm not leaving


Eb-2-------------------------4-------------|
Bb-2---------2---------------4-------------|
F--0---------2---------------2-------------|
C------------0-----------------------------|
You are the only one that I think about

Eb-7---------------------------------------|
Bb-7-------------------2-------------------|
F--5-------------------2-------------------|
C----------------------0-------------------|
When I'm down and out and miles away
You are the only one, when we're falling out
I want to make it better
These are the words that I should have told you
All of the times that I just ignored you
I would give you everything I have
So let's just start all over again


Now that the games we've played Were stripped down and thrown away
I can clearly see That you've been waiting on me

So open your eyes and see where I'm standing
Straight in your line of sight so you
Should make up your mind
Do what it is that you need to
‘cause I'm not leaving

You are the only one that I think about
When I'm down and out and miles away
You are the only one, when we're falling out
I want to make it better

These are the words that I should have told you
All of the times that I just ignored you
I would give you everything I have
So let's just start all over again

F--4-4-4---|------------------7-----------|
C--2-2-2---|------------------5-----------|
Bygones are bygones And they should stay that way

Eb---------|-----------7------------------|
Bb---------|-----------7---------2--------|
F--4-4-4---|-----------5---------2--------|
C--2-2-2---|---------------------0--------|
We've got the world at our fingers Let’s stick it back together
We could make it better We could make it better

You are the only one that I think about
When I'm down and out and miles away
You are the only one, when we're falling out
I want to make it better

These are the words that I should have told you
All of the times that I just ignored you
I would give you everything I have
So let’s just start all over again
Not sent from my fucking iphone.

The Wicked Mod of the South.

Go here you might like it.
http://z6.invisionfree.com/Eureka_Machines/index.php
User avatar
Sarc
 
Posts: 2822
Joined: 25th Apr 07, 21:27
Location: Brighton

Postby Sarc » 4th Sep 09, 15:50

The solo isn't 100 percent right but it's the best I can do at the moment.

Code: Select all
John Of Violence

E = C
A = F
D = Bb
G = Eb
B = G
e = C


Guitar 1 & 2               
Bb--2-2-9\7----2-2-9\7--|
F---2-2-7\5----2-2-5\7--|
C---0-0--------0-0------|

Guitar 1                  Guitar 2
Eb----------------------|-----9/12-------9/12---|
Bb--2-2-9\7--2-2-9\7----|-2-2-9/12--2-2--9/12---|
F---2-2-7\5--2-2-7\5----|-2-2-7/10--2-2--7/10---|
C---0-0------0-0--------|-0-0-------0-0---------|
                                                  Guitar 2 only
G-----------------------|-----------------------|-----15-14-15-14----15-14-15-14--
Eb--------9-------------|--4---------7-------2--|-----14-14-14-14----14-14-14-14--
Bb--------9-------------|--4---------7-------2--|--14-------------14--------------
F---------7-------------|--2---------5-------0--|---------------------------------
When the people ceased to cheer for John Of Violence
He resigned to spend his time in a tomb of silence

Bb--2--0--2-----|--2--0--4--5-
F------------2--|-------------
And when he struck out for the third and final time
On lifeline number nine,there was nothing left to be unafraid of

Eb-----------------------------|---------4----------------------
Bb--------------------5--------|---------5----------------------
F---------------------5--------|---------2----------------------
C---------------------3--------|--------------------------------
And moments from the bridge Payback is a bitch

Eb-------5---------------------|--------------------------7-----
Bb-------5---------------------|---------5----------------7-----
F--------3---------------------|---------5----------------5-----
C------------------------------|---------3----------------------
And you never know until you’re falling Just how far that is

Eb-9---------------------------|------7-------------------------
Bb-9---------------------------|------7-------------------------
F--7---------------------------|------5-------------------------
C--0---------------------------|--------------------------------
Keeping to the plan Things got out of hand

Eb-------5---------------------|---------------------------7----
Bb-------5---------------------|--------------5------------7----
F--------3---------------------|--------------5------------5----
C------------------------------|--------------3-----------------
And his taste for flesh was nothing else than biting feeding hands

Eb-------5---------------------|-------------------------------
Bb-------5---------------------|-------------------------------
F--------3---------------------|-------------------------------
C------------------------------|-------------------------------
and tasting silence


Guitar 1 & 2               
Bb---2-9\7----2-2-9\7--|
F----2-7\5----2-2-5\7--|
C----0--------0-0------|
John Of Violence
                                                  Cuitar 2 only
G-----------------------|-----------------------|-----15-14-15-14----15-14-15-14--
Eb--------9-------------|--4---------7-------2--|-----14-14-14-14----14-14-14-14--
Bb--------9-------------|--4---------7-------2--|--14-------------14--------------
F---------7-------------|--2---------5-------0--|---------------------------------
When you feed a demon alcohol and sedatives
The amnesia that kills regret is relative


Bb--2--0--2-----|--2--0--4--5-
F------------2--|-------------
To the sum of the sins that you’re trying to forget
Once the reputation’s set as one man thinks it uncool to remember

Eb-----------------------------|---------4----------------------
Bb--------------------5--------|---------5----------------------
F---------------------5--------|---------2----------------------
C---------------------3--------|--------------------------------
And moments from the bridge Payback is a bitch

Eb-------5---------------------|--------------------------7-----
Bb-------5---------------------|---------5----------------7-----
F--------3---------------------|---------5----------------5-----
C------------------------------|---------3----------------------
And you never know until you’re falling Just how far that is

Eb-9---------------------------|------7-------------------------
Bb-9---------------------------|------7-------------------------
F--7---------------------------|------5-------------------------
C--0---------------------------|--------------------------------
Keeping to the plan Things got out of hand

Eb-------5---------------------|---------------------------7----
Bb-------5---------------------|--------------5------------7----
F--------3---------------------|--------------5------------5----
C------------------------------|--------------3-----------------
And his taste for flesh was nothing else than biting feeding hands

Eb-------5---------------------|-------------------------------
Bb-------5---------------------|-------------------------------
F--------3---------------------|-------------------------------
C------------------------------|-------------------------------
and tasting silence

Guitar 1                         
Eb---------7------5------7-----|--9----7---5-------2---4---7---
Bb--5------7------5---5--7-----|--9----7---5---5---2---4---7---
F---5------5------3---5--5-----|--7----5---3---5---0---2---5---
C---3-----------------3--------|---------------3---------------

Guitar 2
Eb-----8-----8-----8-----8-----8---|-----10-----10-----10-----10-----10------
Bb-7-7---7-7---7-7---7-7---7-7---7-|-7-7----7-7----7-7----7-7----7-7----7----

Eb-----8-----8-----8-----8-----8---|-----10----10/12-10-8-7___________-------
Bb-7-7---7-7---7-7---7-7---7-7---7-|-7-7----7--------------------------------

And moments from the bridge Payback is a bitch
And you never know until you’re falling Just how far that is

Eb-----------------------|---------4----------------------
Bb--------------5--------|---------5----------------------
F---------------5--------|---------2----------------------
C---------------3--------|--------------------------------
Keeping to the plan Things got out of hand

Eb-------5---------------------|----------------------7-----
Bb-------5---------------------|---------5------------7-----
F--------3---------------------|---------5------------5-----
C------------------------------|---------3------------------
And his taste for flesh was nothing else Than biting feeding hands

Eb-9---------------------------|------7-------------------------
Bb-9---------------------------|------7-------------------------
F--7---------------------------|------5-------------------------
C--0---------------------------|--------------------------------
And moments from the bridge Payback is a bitch

Eb-------5---------------------|---------------------------7----
Bb-------5---------------------|--------------5------------7----
F--------3---------------------|--------------5------------5----
C------------------------------|--------------3-----------------
And his taste for flesh was nothing else than biting feeding hands

Eb-----------------------------|-------------------------------
Bb-------2---------------------|-------------------------------
F--------2---------------------|-------------------------------
C--------0---------------------|-------------------------------
and tasting silence

Eb-----9/12-------9/12---|
Bb-2-2-9/12--2-2--9/12---|
F--2-2-7/10--2-2--7/10---|
C--0-0-------0-0---------|
Not sent from my fucking iphone.

The Wicked Mod of the South.

Go here you might like it.
http://z6.invisionfree.com/Eureka_Machines/index.php
User avatar
Sarc
 
Posts: 2822
Joined: 25th Apr 07, 21:27
Location: Brighton

Postby Sarc » 4th Sep 09, 16:41

Code: Select all
You Are Proof That Not All Women Are Insane

E = C
A = F
D = Bb
G = Eb
B = G
e = C

Intro pm
Eb-----7-----7-----5-----7--------|-----7-----7-----5-----7--------|
Bb--5--7--5--7--2--5--5--7--------|--5--7--5--7--2--5--5--7--------|
F---5--5--5--5--2--3--5--5--------|--3-----3-----0-----3-----------|
C---3-----3-----0-----3-----------|--3-----3-----0-----3-----------|
                                   Wo-Woah! Wo-Woah! Wo-Woah! Wo-Woah!
Eb--------------------------|-------------------------------5-------
Bb--5-----------------4-----|---2---------------------------5-------
F---5-----------------5-----|---2---------------------------3-------
C---3-----------------2-----|---0-----------------------------------
You’ll never see her out on her own She always seems like a tower of stone
She’s never angry, most of the time She’s outta sight and I’m out of my mind

Eb-----7-----7-----5-----7--------|
Bb--5--7--5--7--2--5--5--7--------|
F---5--5--5--5--2--3--5--5--------|
C---3-----3-----0-----3-----------|
Wo-Woah! Wo-Woah! Wo-Woah! Wo-Woah!

Eb--------------------------|-------------------------------5-------
Bb--5-----------------4-----|---2---------------------------5-------
F---5-----------------5-----|---2---------------------------3-------
C---3-----------------2-----|---0-----------------------------------
She’ll never judge and she’s never in doubt I’m the only bad thing to come out of her mouth
Eb--------------------------|-------------------------------4-------
Bb--5-----------------4-----|---2---------------------------4-------
F---5-----------------5-----|---2---------------------------2-------
C---3-----------------2-----|---0-----------------------------------
She brings the best out of all of her friends Her golden era, it never ends

Eb---5--------------7-----5-|----------7-------------9---------------
Bb---5----5---------7-----5-|-----5----7-------------9---------------
F----3----5---------5-----3-|-----5----5-------------7---------------
C---------3-----------------|-----3----------------------------------
The girl away from me is still as far away as she’s ever been

Eb---5--------------7-----5-|----------7------------------------------
Bb---5----5---------7-----5-|---5------7------------------------------
F----3----5---------5-----3-|---5------5------------------------------
C---------3-----------------|---3-------------------------------------
The girl away from me is still so far away

Eb-----7-----7-----5-----7--------|
Bb--5--7--5--7--2--5--5--7--------|
F---5--5--5--5--2--3--5--5--------|
C---3-----3-----0-----3-----------|
Wo-Woah! Wo-Woah! Wo-Woah! Wo-Woah!

Eb--------------------------|-------------------------------5-------
Bb--5-----------------4-----|---2---------------------------5-------
F---5-----------------5-----|---2---------------------------3-------
C---3-----------------2-----|---0-----------------------------------
And she’ll drink most guys under the bar And not get sick in the back of the car

Eb--------------------------|-------------------------------4-------
Bb--5-----------------4-----|---2---------------------------4-------
F---5-----------------5-----|---2---------------------------2-------
C---3-----------------2-----|---0-----------------------------------
Okay, so her music and her movies are bland These days it’s enough to get a nine out of ten

Eb---5--------------7-----5-|----------7-------------9---------------
Bb---5----5---------7-----5-|-----5----7-------------9---------------
F----3----5---------5-----3-|-----5----5-------------7---------------
C---------3-----------------|-----3----------------------------------
The girl away from me is still as far away as she’s ever been

Eb---5--------------7-----5-|----------7------------------------------
Bb---5----5---------7-----5-|---5------7-------------------------------
F----3----5---------5-----3-|---5------5-------------------------------
C---------3-----------------|---3-------------------------------------

Eb-----7-----7-----5-----7--------|
Bb--5--7--5--7--2--5--5--7--------|
F---5--5--5--5--2--3--5--5--------|
C---3-----3-----0-----3-----------|
Wo-Woah! Wo-Woah! Wo-Woah! Wo-Woah!

The girl away from me is still as far away as she’s ever been

Eb-----7-----7-----5-----7--------|-----7-----7-----5-----7--------|
Bb--5--7--5--7--2--5--5--7--------|--5--7--5--7--2--5--5--7--------|
F---5--5--5--5--2--3--5--5--------|--5--5--5--5--2--3--5--5--------|
C---3-----3-----0-----3-----------|--3-----3-----0-----3-----------|
Wo-Woah! Wo-Woah! Wo-Woah! Wo-Woah! Wo-Woah! Wo-Woah! Wo-Woah! Wo-Woah!

Eb---7---7---7---7----------------|
Bb---5-7-5-7-5-7-5----------------|
F------5---5---5------------------|
Not sent from my fucking iphone.

The Wicked Mod of the South.

Go here you might like it.
http://z6.invisionfree.com/Eureka_Machines/index.php
User avatar
Sarc
 
Posts: 2822
Joined: 25th Apr 07, 21:27
Location: Brighton

Postby nig1012 » 4th Sep 09, 17:57

dude it's really cool of u doin' these tabs but is there any way u can put them up without them merging together
is your silence making you lonely?
or is your lonliness making you silent?
nig1012
 
Posts: 994
Joined: 30th Mar 06, 18:16
Location: crewe

Postby Sarc » 4th Sep 09, 18:00

They're not merged together, they're set out as clearly as thay can be on here.
Not sent from my fucking iphone.

The Wicked Mod of the South.

Go here you might like it.
http://z6.invisionfree.com/Eureka_Machines/index.php
User avatar
Sarc
 
Posts: 2822
Joined: 25th Apr 07, 21:27
Location: Brighton

PreviousNext

Return to Wildhearts Music and General Chat

Who is online

Users browsing this forum: No registered users and 1 guest

cron