Guitar Tabs

Albums, singles, songs and general Wildhearts banter

Postby nig1012 » 25th Mar 09, 16:23

Code: Select all
29x THE PAiN
THE WiLDHEARTS

(Tune down 1/2 a step)

INTRO
E--------------------------------------------------------------------
B--7----7-5-7--8-8---8-7-8-8--8-8---7--5--3--3--3-3------------------
G--7----7-6-7--7-7---7-7-7-7--6-6------------------------------------
D--------------------------------------------------------------------
A---------------------------------------------------X-X-X-X-X-X--Pick
E---------------------------------------------------X-X-X-X-X-X--slide

V1
D G A
5/2 3/1 5/1
Here, sitting in my room with the replacements and husker du
B7 G A D
2/2 3/1 5/1 5/2
Like a rebel without a clue and the beatles and the stones
G A
3/1 5/1
I get to hang with the Ramones, and the pistols shooting fame
B7 E G
2/2 7/2 3/1
As they sing the old refrain like they always will again

CHORUS

A D
5/1 5/2
It's like 29 times the pain

Bridge
B A G A B A G A B A B
2/1 5/1 3/1 5/1
Times the pain, times the pain, times the pain it always will...
E B E B A
Kiss my heart like the damned did from the start come on make me feel
D A D
like me if they ever didn't see (?) etc...


could some kind soul please work out this little unknown number for me especially the beginning.in the song it seems to carry on playing with two strings but in this tab it goes to one string and doesn't sound quite right (am i making sense :roll: ) i've tried working out the notes meself but i'm more of a 'copier' than a 'creater' :lol:
is your silence making you lonely?
or is your lonliness making you silent?
nig1012
 
Posts: 994
Joined: 30th Mar 06, 18:16
Location: crewe

Postby Ean » 25th Mar 09, 17:06

Try this. The intro's more from the re-recording and the live version, but I like that one better. I think the notes for the B-side intro are more or less the same, but you'll need to play with the rhythm a bit.

Code: Select all
29x THE PAiN

THE WiLDHEARTS

Tune down 1/2 a step

INTRO
e-----------------|-----------------|-----------------|-----------------|
B-7---------------|-7-----5---7---8-|-----------------|-8-----7---8---8-|
G-7---------------|-7-----6---7---7-|-----------------|-7-----7---7---6-|
D-----0-0-0-0-0-0-|-0-0-0-0-0-0-0-0-|---0-0-0-0-0-0-0-|-0-0-0-0-0-0-0-0-|
A-----------------|-----------------|-----------------|-----------------|
E-----------------|-----------------|-----------------|-----------------|

e-----------------|-----------------|-----------------|-----------------|
B-----------------|-7-----5---3---3-|-----------------|-3-----3-----3-3-|
G-----------------|-7-----6---4---4-|-----------------|-3-----2-----0H2-|
D---0-0-0-0-0-0-0-|-0-0-0-0-0-0-0-0-|---0-0-0-0-0-0-0-|-0-0-0-0---------|
A-----------------|-----------------|-----------------|-----------------|
E-----------------|-----------------|-----------------|-----------------|

|D       |        |G       |        |A       |B       |G       |        |

|D       |D       |D       |

D                  G
Here sitting in my room
                                 A
With the Replacements and Husker Du
       B               G
Like a rebel without a clue
        A               D
And the Beatles and the Stones
                       G
Get to hang out with Ramones
                         A
And the Pistols shunning fame
        B               E
As they sing the old refrain
                     G
As they always will again
     A            D
Like 29 times the pain

|D        |        |G       |A        |

|D        |        |G       |A        |

      D
I see Starz
                        G
And the mood is Big and Black
                            A
There’s a full Sheer Heart Attack
        B                 G
But the Cheapest Trick of all
               A           D
Is when I hear that London Call
                               G
I need something and I need it fast
                       A
I need Jason Scorching past
          B                  E
I need to feel they feel the same
                              G
’Cos when they almost know my name

          A            D               G
It's like 29 times the pain, times the pain
A            D               G
29 times the pain, times the pain
A            B    A   G  G
29 times the pain,
A         B    A   G  G
Times the pain,
A         B    A
Times the pain
       G        A      D
But it all ends up the same,

G  D
        Thanks Pink

E       B
Kiss my Heart
         E                   B
Like the Damned did from the start
        A                 D
Come on make me feel like me
  A      D
SLF or BOC

        E            B
Give me old, give me new,
       E                B
Let me know you feel it too
         A                     D              A                D
Cos with sounds that twist and curl / Cos for all you boys and girls
       G     D   A
It's a brave new world

G   D                 G
I'm up, how can I get down,
                              A
When I've got all my friends around?
          B              E
And I can be there once again
                      G                              G
Oh God, I miss Kurt Cobain / Where you hiding Richie James?

          A            D               G
It's like 29 times the pain, times the pain
A            D               G
29 times the pain, times the pain
A            B    A  G  G
29 times the pain,
A         B    A  G  G
Times the pain,
A         B   
Times the pain
     A       G       A         B
(And all the gaps in all   the gain)
           times the pain
   A      G      A         B
(Tomorrow always cries my  name)
       Times the pain
     A        G        A     D
(And makes it all worthwhile again)

|D     G |D     G |D       |A       |D       |



   D
Be kind to your web-footed friends
                                   A
'Cos that duck might be somebody's mommy

They live in the rivers and swamps
          D          G      A
Where the weather is always damp
         D
Well you may think that this is the end

Well it is!


Tab By Ean (ean.coombs@googlemail.com)
Ean Ü

"I have to go along with all this reclusive genius stuff... she's going to be very upset when she finds out I'm a reclusive wanker."
User avatar
Ean
Moderator
 
Posts: 4040
Joined: 10th Feb 06, 14:44
Location: Just next to my confuser

Postby nig1012 » 2nd Apr 09, 21:54

can anyone (Ean :D ) sort out a decent CHEERS guitar tab cheers :oops:
is your silence making you lonely?
or is your lonliness making you silent?
nig1012
 
Posts: 994
Joined: 30th Mar 06, 18:16
Location: crewe

Postby Ean » 2nd Apr 09, 22:23

nig1012 wrote:can anyone (Ean :D ) sort out a decent CHEERS guitar tab cheers :oops:

You can't actually do any better than the Guitar Pro one that's out there.

http://rapidshare.com/files/216712309/CH33R5TA8.zip

PM me if you need a hand with it.
Ean Ü

"I have to go along with all this reclusive genius stuff... she's going to be very upset when she finds out I'm a reclusive wanker."
User avatar
Ean
Moderator
 
Posts: 4040
Joined: 10th Feb 06, 14:44
Location: Just next to my confuser

Postby Pauly » 30th Apr 09, 15:02

Pauly wrote:Don't suppose one of you wonderful forum dwellers has managed to figure out 'The Hard Way' yet? Bits of it I can sus out but on the whole it's a bit of a mystery (as is most of that album tbh).

Thanks in advance

P



Pretty please?
I forgot to remember to forget
User avatar
Pauly
 
Posts: 207
Joined: 27th Mar 08, 11:48
Location: Edinburgh

Postby Alteredcarbon » 2nd May 09, 17:11

Should be fairly accurate, hopefully:
Code: Select all
THE HARD WAY

THE WiLDHEARTS

Tune down half a step

/ = slide
x = mute strings

intro riff:
eb|----------------------------------------------------------------------|
Bb|--------------8-8-------------8-8----10-10-10-8-------10-10-10-8------|
Gb|--------------7-7-------------7-7----9--9--9--9-------9--9--9--9------|
Db|-----------------------------------2------------2-2-2-----------------| 
Ab|--2-2-2-2-2-2-----2-2-2-2-2-2------0------------0-0-0-----------------|
Eb|--0-0-0-0-0-0-----0-0-0-0-0-0-----------------------------------------|
  |                                                                      |  x4
  |                                                                      |
eb|----------------------------------------------------------------------|
Bb|----------------------------------------------------------------------|
Gb|----------------------------------------------------------------------|
Db|-----------------------------------2-2-2-2-2-2-2-2-2-2-2-2-2-2-2------| 
Ab|--2-2-2-2-2-2-2-2-2-2-2-2-2-2-2-2--0-0-0-0-0-0-0-0-0-0-0-0-0-0-0------|
Eb|--0-0-0-0-0-0-0-0-0-0-0-0-0-0-0-0-------------------------------------|

eb|-----------------------------------------------------------------------|
Bb|-----------------------------------------------------------------------|
Gb|-----------------------------------------------------------------------|  x2
Db|-------2-4---4/6---6/7---4/6---2-4---2-4---4/6---6/7---4/6---2-3-4-----| 
Ab|-------0-2---2/4---4/5---2/4---0-2---0-2---2/4---4/5---2/4---0-1-2-----|
Eb|--0--------0-----0-----0-----0-----0-----0-----0-----0-----0-----------|


   (New motel and dirty beds...)
eb|---------------------------------------------------------------------|
Bb|---------------------------------------------------------------------|
Gb|---------------------------------------------------------------------|
Db|---------------------------------------------------------------------| 
Ab|--2-2-2-2-2-2-2-2-2-2-2-2-2-2-2-2--2-2-2-2-2-2-2-2-2-2-2-2-2-2-2-2---|
Eb|--0-0-0-0-0-0-0-0-0-0-0-0-0-0-0-0--0-0-0-0-0-0-0-0-0-0-0-0-0-0-0-0---|

eb|-----------------------------------------------------------------------|
Bb|-----------------------------------------------------------------------|
Gb|-----------------------------------------------------------------------|  x2
Db|-------2-4---4/6---6/7---4/6---2-4---2-4---4/6---6/7---4/6---2-3-4-----| 
Ab|-------0-2---2/4---4/5---2/4---0-2---0-2---2/4---4/5---2/4---0-1-2-----|
Eb|--0--------0-----0-----0-----0-----0-----0-----0-----0-----0-----------|


   (Waiting 'round for soundcheck...)
eb|---------------------------------------------------------------------|
Bb|---------------------------------------------------------------------|
Gb|---------------------------------------------------------------------|
Db|---------------------------------------------------------------------| 
Ab|--2-2-2-2-2-2-2-2-2-2-2-2-2-2-2-2--2-2-2-2-2-2-2-2-2-2-2-2-2-2-2-2---|
Eb|--0-0-0-0-0-0-0-0-0-0-0-0-0-0-0-0--0-0-0-0-0-0-0-0-0-0-0-0-0-0-0-0---|

eb|-----------------------------------------------------------------------|
Bb|-----------------------------------------------------------------------|
Gb|-----------------------------------------------------------------------|  x2
Db|-------2-4---4/6---6/7---4/6---2-4---2-4---4/6---6/7---4/6---2-3-4-----| 
Ab|-------0-2---2/4---4/5---2/4---0-2---0-2---2/4---4/5---2/4---0-1-2-----|
Eb|--0--------0-----0-----0-----0-----0-----0-----0-----0-----0-----------|


   (Gonna be someone...)
eb|-------------------------------------------------------------------|
Bb|-------------------------------------------------------------------|
Gb|-----------2-------------2---------2---------2---------2--2--3-----|
Db|--2--------0----2--------0----2----0----2----0----2----0--0--1-----| 
Ab|--0-------------0-------------0---------0---------0----------------|
Eb|-------------------------------------------------------------------|


   (All fucked up and ready to roll....)
eb|---------------------------------------------------------------|
Bb|---------------------------------------------------------------|
Gb|---------------------------------------------------------------| 
Db|-------2-4---4/6---6/7---4/6---2-4-----2-4---4/6---6/7---4/6---| 
Ab|-------0-2---2/4---4/5---2/4---0-2-----0-2---2/4---4/5---2/4---|
Eb|--0--------0-----0-----0-----0-----0-------0-----0-----0-------|


   (Don't need a reason...)
eb|--------------------------------------------------------------------------------------------|
Bb|--------------------------------------------------------------------------------------------|
Gb|----------------------------------4-4-4------------------------------4-4-4------------------|
Db|--2-3-4----4----4--------4--4-----2-2-2----4-4-----4----4-4----4-----2-2-2----2-------------| 
Ab|--0-1-2----2----2--------2--2--------------2-2-----2----2-2----2--------------0---------2---|
Eb|----------------------------------------------------------------------------------------0---|


   (Cut into pieces...)
eb|----------------------------------------------------------------------------------------------------------------------|
Bb|----------------------------------------------------------------------------------------------------------------------|
Gb|----------------------------------4-4-4------------------------------4-4-4--------------------------------------------|
Db|--2-3-4----4----4--------4--4-----2-2-2----4-4-----4----4-4----4-----2-2-2----2------------4-4-4-4-4-4-4-4-4-4-4-4-4--| 
Ab|--0-1-2----2----2--------2--2--------------2-2-----2----2-2----2--------------0---------2--2-2-2-2-2-2-2-2-2-2-2-2-2--|
Eb|----------------------------------------------------------------------------------------0-----------------------------|


   (Cos I'm out on the road...)
eb|------------------------------------------------------------------------------------------------------------------------------------|
Bb|------------------------------------------------------------------------------------------------------------------------------------|
Gb|------------------------------------------------------------------------------------------------------------------------------------|
Db|--------------------------------2--2-2-2--2-2-2--2-2-2--2-2-2---------------------------------4--4-4-4--4-4-4--4-4-4--4-4-4--4-4-4--| 
Ab|-2--2-2-2--2-2-2--2-2-2--2-2-2--0--0-0-0--0-0-0--0-0-0--0-0-0--2--2-2-2--2-2-2--2-2-2--2-2-2--2--2-2-2--2-2-2--2-2-2--2-2-2--2-2-2--|
Eb|-0--0-0-0--0-0-0--0-0-0--0-0-0---------------------------------0--0-0-0--0-0-0--0-0-0--0-0-0----------------------------------------|


   (And I ain't getting fed,...)
eb|----------------------------------------------------------------------------------------------|
Bb|----------------------------------------------------------------------------------------------|
Gb|----------------------------------------------------------------------------------------------|
Db|--------------------------------6--6-6-6--6-6----------------7--7-7-7--7-7--------------------| 
Ab|--2--2-2-2--2-2--6--6-6-6--6-6--4--4-4-4--4-4-7--7-7-7--7-7--5--5-5-5--5-5--7--7-7-7--7-7-----|
Eb|--0--0-0-0--0-0--4--4-4-4--4-4----------------5--5-5-5--5-5-----------------5--5-5-5--5-5-----|


eb|-----------------------------------------------------------------------|
Bb|-----------------------------------------------------------------------|
Gb|-----------------------------------------------------------------------|  x2
Db|-------2-4---4/6---6/7---4/6---2-4---2-4---4/6---6/7---4/6---2-3-4-----| 
Ab|-------0-2---2/4---4/5---2/4---0-2---0-2---2/4---4/5---2/4---0-1-2-----|
Eb|--0--------0-----0-----0-----0-----0-----0-----0-----0-----0-----------|

eb|---------------------------------------------------------------------------------------------------------------------------|
Bb|---------------------------------------------------------------------------------------------------------------------------|
Gb|---------------------------------------------------------------------------------------------------------------------------| x2
Db|----------------7/9-----7/9--------------------7/9-----7/9--------------------7/9-----7/9--------------------7/9-----7/9---| 
Ab|--7/8\7-5--2--2-5/7-2-2-5/7--2-2-7/8\7-5--2--2-5/7-2-2-5/7--2-2-7/8\7-5--2--2-5/7-2-2-5/7--2-2-7/8\7-5--2--2-5/7-2-2-5/7---|
Eb|--5/6\5-3--0--0-----0-0------0-0-5/6\5-3--0--0-----0-0------0-0-5/6\5-3--0--0-----0-0------0-0-5/6\5-3--0--0-----0-0-------|

eb|---------------------------------------------------------------------|
Bb|---------------------------------------------------------------------|
Gb|---------------------------------------------------------------------|
Db|----------9----------9------------------9----------------------------| x4
Ab|--7/8-x-x-7-2--7/8-x-7--2---2--7/8-x-x--7--2--2---7/8\7--5-2-5/7-----|
Eb|--5/6-x-x---0--5/6-x----0---0--5/6-x-x-----0--0---5/6\5--3-0-3/5-----|

eb|-------------------------------------------------------|
Bb|-------------------------------------------------------|
Gb|-------------------------------------------------------|
Db|--2/3--3/6--6/9------------2/3--3/6--6/9--9/12---------|x4 
Ab|--0/1--1/4--4/7---2--2--2--0/1--1/4--4/7--7/10--2--2---|
Eb|------------------0--0--0-----------------------0--0---|

eb|-------------------------------------------------------------|
Bb|-------------------------------------------------------------|
Gb|-----------------6----------------------------6----6---------|
Db|--0----4----7---------6--------0----4----7------------6--6---| 
Ab|-------------------------------------------------------------|
Eb|-------------------------------------------------------------|
  |                                                             |
eb|-------------------------------------------------------------|
Bb|-------------------------------------------------------------|
Gb|-------------------------------------------------------------|
Db|--2----7---------5-------------2----7---------7----7---------| 
Ab|--0----5----4----4----2--------0----5----4----4----4--2--2---|
Eb|------------2---------0------------------2------------0--0---|

eb|---------------------------------------------------------|
Bb|---------------------------------------------------------|
Gb|---------------------------------------------------------|
Db|---------------------------------------------------------| 
Ab|--7/8\7-5--2--2-7/8\7-5--2--2-7/8\7-5--2--2-7/8\7-5--2---|
Eb|--5/6\5-3--0--0-5/6\5-3--0--0-5/6\5-3--0--0-5/6\5-3--0---|


eb|---------------------------------------------------------|
Bb|---------------------------------------------------------|
Gb|---------------------------------------------------------|
Db|---------------------------------------------------------| 
Ab|--7/8\7-5--2--2-7/8\7-5--2--2-7/8\7-5--2--2-7/8\7-5--2---|
Eb|--5/6\5-3--0--0-5/6\5-3--0--0-5/6\5-3--0--0-5/6\5-3--0---|
  |                                                         |
eb|---------------------------------------------------------|
Bb|---------------------------------------------------------|
Gb|---------------------------------------------------------|
Db|---------------------------------------------------------| 
Ab|--2-2-2-2-2-2-2-2-2-2-2-2-2-2-2-2-2-2-2-2-2-2-2-2-2-2-2--|
Eb|--0-0-0-0-0-0-0-0-0-0-0-0-0-0-0-0-0-0-0-0-0-0-0-0-0-0-0--|


eb|---------------------------------------------------------------------------------------------------------|
Bb|---------------------------------------------------------------------------------------------------------|
Gb|---------------------------------------------------------------------------------------------------------|
Db|---------------------------------------------------------------------------------------------------------| 
Ab|--7/8\7-5--2--2--2--2--2--2-7/8\7-5--2--2--2--2--2--2-7/8\7-5--2--2--2--2--2--2-7/8\7-5--2--2--2--2--2---|
Eb|--5/6\5-3--0--0--0--0--0--0-5/6\5-3--0--0--0--0--0--0-5/6\5-3--0--0--0--0--0--0-5/6\5-3--0--0--0--0--0---|


eb|-------------------------------------------------------------|
Bb|-------------------------------------------------------------|
Gb|-----------------6----------------------------6----6---------|
Db|--0----4----7---------6--------0----4----7------------6--6---| 
Ab|-------------------------------------------------------------|
Eb|-------------------------------------------------------------|
  |                                                             |
eb|-------------------------------------------------------------|
Bb|-------------------------------------------------------------|
Gb|-------------------------------------------------------------|
Db|--2----7---------5-------------2----7---------7----7---------| 
Ab|--0----5----4----4----2--------0----5----4----4----4--2--2---|
Eb|------------2---------0------------------2------------0--0---|


   (Cos I'm out on the road...)
eb|-------0------0------0-------0--------------------------------------|
Bb|--------------------------------------3-------3--------3-------3----|
Gb|----------------------------------2-------2-------2--------2--------|
Db|----2------2------2-------2-----0---0---0---0---0----0---0---0------| 
Ab|--0---0--0---0--0---0---0---0---------------------------------------|
Eb|--------------------------------------------------------------------|

   (and the drivers asleep...)
eb|--------0------0------0-------0--------0------0------0-------0--|
Bb|----------------------------------------------------------------|
Gb|----------------------------------------------------------------|
Db|----2------2------2-------2--------2------2------2-------2------| 
Ab|--0---0--0---0--0---0---0---0-----------------------------------|
Eb|---------------------------------0---0--0---0--0---0---0---0----|


  (And I ain't getting fed...)
eb|----------------------------------------------------------------------------------------------------------------------------|
Bb|----------------------------------------------------------------------------------------------------------------------------|
Gb|--------------------------------------6-6-6-6-6-6-6-6-----------------------------------------------------------------------|
Db|--2-2-2-2-2-2-2-2-2--6-6-6-6-6-6-6-6--4-4-4-4-4-4-4-4-7-7-7-7-7-7-7-7-------------------7-7-7-7-7-7-7-7--2-2-2-2-2-2-2-2--2-| 
Ab|--0-0-0-0-0-0-0-0-0--4-4-4-4-4-4-4-4------------------5-5-5-5-5-5-5-5--5-5-5-5-5-5-5-5--5-5-5-5-5-5-5-5--0-0-0-0-0-0-0-0--0-|
Eb|-----------------------------------------------------------------------3-3-3-3-3-3-3-3--------------------------------------|


   (Cos I'm out on the road...)
eb|-------------------------------------------------------------------------------------------------------------------------------------|
Bb|-------------------------------------------------------------------------------------------------------------------------------------|
Gb|-------------------------------------------------------------------------------------------------------------------------------------|
Db|--2-2-2-2-2-2-2-2-2-2-2-2-2-2-2-2--7-7-7-7-7-7-7-7-7-7-7-7-7-7-7-7--2-2-2-2-2-2-2-2-2-2-2-2-2-2-2-2----------------------------------| 
Ab|--0-0-0-0-0-0-0-0-0-0-0-0-0-0-0-0--5-5-5-5-5-5-5-5-5-5-5-5-5-5-5-5--0-0-0-0-0-0-0-0-0-0-0-0-0-0-0-0--2-2-2-2-2-2-2-2-2-2-2-2-2-2-2-2-|
Eb|-----------------------------------------------------------------------------------------------------0-0-0-0-0-0-0-0-0-0-0-0-0-0-0-0-|


  (And I ain't getting fed...)
eb|--------------------------------------------------------------------------------------------------------------------------|
Bb|--------------------------------------------------------------------------------------------------------------------------|
Gb|--------------------------------------------------------------------------------------------------------------------------|
Db|--2-2-2-2-2-2-2-2--6-6-6-6-6-6-6-6-------------------7-7-7-7-7-7-7-7-------------------7-7-7-7-7-7-7-7--2-2-2-2-2-2-2-2---| 
Ab|--0-0-0-0-0-0-0-0--4-4-4-4-4-4-4-4--4-4-4-4-4-4-4-4--5-5-5-5-5-5-5-5--5-5-5-5-5-5-5-5--5-5-5-5-5-5-5-5--0-0-0-0-0-0-0-0---|
Eb|------------------------------------2-2-2-2-2-2-2-2-------------------3-3-3-3-3-3-3-3-------------------------------------|

eb|-------------------------------------------------------------------------------------------------------------------------------------|
Bb|-------------------------------------------------------------------------------------------------------------------------------------|
Gb|-----------------------------------4-4-4-4-4-4-4-4-4-4-4-4-4-4-4-4-------------------------------------------------------------------|
Db|--4-4-4-4-4-4-4-4-4-4-4-4-4-4-4-4--2-2-2-2-2-2-2-2-2-2-2-2-2-2-2-2--4-4-4-4-4-4-4-4-4-4-4-4-4-4-4-4----------------------------------| 
Ab|--2-2-2-2-2-2-2-2-2-2-2-2-2-2-2-2-----------------------------------2-2-2-2-2-2-2-2-2-2-2-2-2-2-2-2--4-4-4-4-4-4-4-4-4-4-4-4-4-4-4-4-|
Eb|-----------------------------------------------------------------------------------------------------2-2-2-2-2-2-2-2-2-2-2-2-2-2-2-2-|


eb|--------------------------------------------------------------------------------------------------------------------------|
Bb|--------------------------------------------------------------------------------------------------------------------------|
Gb|-------------------3-3-3-3-3-3-3-3----------------------------------------------------------------------------------------|
Db|--4-4-4-4-4-4-4-4--1-1-1-1-1-1-1-1------------------------------------2-2-2-2-2-2-2-2-------------------4-4-4-4-4-4-4-4---| 
Ab|--2-2-2-2-2-2-2-2-------------------6-6-6-6-6-6-6-6--2-2-2-2-2-2-2-2--0-0-0-0-0-0-0-0--2-2-2-2-2-2-2-2--2-2-2-2-2-2-2-2---|
Eb|------------------------------------4-4-4-4-4-4-4-4--0-0-0-0-0-0-0-0-------------------0-0-0-0-0-0-0-0--------------------|


eb|-------------------------------------------------------------------------------------------------------------------------------------|
Bb|-------------------------------------------------------------------------------------------------------------------------------------|
Gb|-----------------------------------4-4-4-4-4-4-4-4-4-4-4-4-4-4-4-4-------------------------------------------------------------------|
Db|--4-4-4-4-4-4-4-4-4-4-4-4-4-4-4-4--2-2-2-2-2-2-2-2-2-2-2-2-2-2-2-2--4-4-4-4-4-4-4-4-4-4-4-4-4-4-4-4----------------------------------| 
Ab|--2-2-2-2-2-2-2-2-2-2-2-2-2-2-2-2-----------------------------------2-2-2-2-2-2-2-2-2-2-2-2-2-2-2-2--4-4-4-4-4-4-4-4-4-4-4-4-4-4-4-4-|
Eb|-----------------------------------------------------------------------------------------------------2-2-2-2-2-2-2-2-2-2-2-2-2-2-2-2-|


eb|--------------------------------------------------------------------------------------------------------------------------|
Bb|--------------------------------------------------------------------------------------------------------------------------|
Gb|-------------------3-3-3-3-3-3-3-3----------------------------------------------------------------------------------------|
Db|--4-4-4-4-4-4-4-4--1-1-1-1-1-1-1-1------------------------------------2-2-2-2-2-2-2-2-------------------4-4-4-4-4-4-4-4---| 
Ab|--2-2-2-2-2-2-2-2-------------------6-6-6-6-6-6-6-6--2-2-2-2-2-2-2-2--0-0-0-0-0-0-0-0--2-2-2-2-2-2-2-2--2-2-2-2-2-2-2-2---|
Eb|------------------------------------4-4-4-4-4-4-4-4--0-0-0-0-0-0-0-0-------------------0-0-0-0-0-0-0-0--------------------|


eb|---------------------------------------------|
Bb|---------------------------------------------|
Gb|---------------------------------------------|
Db|--2-----------------4------------------------| 
Ab|--0--------2--------2------------------------|
Eb|-----------0---------------------------------|


Apologies for missing off the solo, off to enjoy the sun/pub now!
Alteredcarbon
 
Posts: 70
Joined: 25th Apr 07, 02:14
Location: Manchester

Postby Pauly » 4th May 09, 14:22

Legend :D
I forgot to remember to forget
User avatar
Pauly
 
Posts: 207
Joined: 27th Mar 08, 11:48
Location: Edinburgh

Postby Arabiandisco » 31st May 09, 09:35

question/ request:

Anyone know what happened to the TV Tan tab? A few years back it was somewhere on the net, but now it's gone, and I can't remember/ figure out the intro riff...
Unleashing the power of mediocrity since 1981
Go 49ers
www.myspace.com/poutband
Arabiandisco
 
Posts: 97
Joined: 2nd Aug 07, 20:57

Postby wildsam6o » 31st May 09, 13:14

This is the version i have, its pretty spot on


Code: Select all
TV TAN



INTRO

         
E [-7---9---]-----------------7---9---
B [7-7-7-7-7]10-9-10-9-10-9--7-7-7-7-7
G [-------9-] 9-9- 9-9- 9-9---------9-
D [---------]11-9-11-9-11-9-----------
A [---------]-------------------------
E [---------]-------------------------

VERSE

I'm living on a landmine
B                       EEE

My body's ticking away
B                       BB

My cartoon eyelids

E ----------------------------------------
B ----------------------------------------
G ----------------------------------------
D -------------7-7-6-6---------7-7-6-6----
A ---------------------7-7-------------7-7
E ---------5-5-------------5-5------------

And my skin, a sickly grey

       F#             E     A A#

And if I waited by the phone line
B                                 EEE

I'd wait a couple of days
B                          BB

'Til I'm here lying

E -------------------------------------------
B -------------------------------------------
G -------------------------------------------
D ----------------7-7-6-6---------7-7-6-6----
A ------------------------7-7-------------7-7
E ------------5-5-------------5-5------------

On my bed until I fade

      F#          E

I flick the channels one to one

G#      D#

I flick them through again

E      B

And all the time I dream of better days

G#                 D#              A     EEE EEE EE E

PRE-CHORUS

And I (I need no sun, I need no light behind my one track mind)

B                E              A               E

Here all (I need no fun, I need no time to find a new desire)

B                E              A               E

Move along, I'm working on my 3D TV Tan

F#                            C# E

CHORUS

(So so KO) I need another show

D     G   D      G

(So so KO) It's just a part of the plan

D     G   D      G

(So so KO) It's only me and my TV tan

D     G   D      G            DA E



Repeat verse + pre-chorus.


(So so KO) I need another show

D     G   D      G

(So so KO) It's just a part of the plan

D     G   D      G

(So so KO) It's only me and my TV tan, TV tan

D     G   D      G            DA G    CG E


BRIDGE


Thinning, I'm thinning, and insanely grinning

E             B             G        D

As fools peering out of my TV, try hard to be funny

A                E         B       G          D

Unfortunate for me, they start to entertain me

G#          B       G                  D         E


LAST VERSE

I'm living on a landmine

B                         EEE

My body's ticking away

B                         BB

And I'm here waiting

E ------------------------------------------
B ------------------------------------------
G ------------------------------------------
D ---------------7-7-6-6---------7-7-6-6----
A -----------------------7-7-------------7-7
E -----------5-5-------------5-5------------

Here for nothing!

         F#       E

PRE-CHORUS and CHORUS to end.
wildsam6o
 
Posts: 463
Joined: 5th Feb 08, 18:14
Location: Southend on sea

Postby Arabiandisco » 31st May 09, 14:18

Thanks dude.

Remembered it was around the 7/9th fret, but I was starting a string too low...
Unleashing the power of mediocrity since 1981
Go 49ers
www.myspace.com/poutband
Arabiandisco
 
Posts: 97
Joined: 2nd Aug 07, 20:57

Postby Mr. Joe » 19th Jun 09, 17:27

I've always played the TV Tan intro as

Code: Select all
E---------7-----9-7---4----|
B--5-sl-7---7-7-----5------|
G--------------------------|
D--------------------------|
A--------------------------|
E--------------------------|


...But I can't be definite on that as my ears arn't all that good. Don't suppose anyone has tabbed News of the World have they? I'd be ever so grateful. =D
Mr. Joe
 
Posts: 12
Joined: 28th Oct 06, 20:18

Postby benwalton » 2nd Aug 09, 19:54

Don't suppose anybody has Inner City Overture?

I swear I saw a tab for it on here ages ago but it escapes me now...

Thanks
and just last week as i was clearing shit from off my shelf...
User avatar
benwalton
 
Posts: 349
Joined: 12th Feb 06, 21:02

Postby getting_it_sucks » 14th Aug 09, 13:23

Has anyone got a Sky Chaser High tab they would like to post? :)
getting_it_sucks
 
Posts: 72
Joined: 29th Aug 07, 14:29

Postby VladDracii » 14th Aug 09, 14:19

Ill do Sky Chaser in a min, but Ean mite have it already transcribed...

..There IS a tab out there, but the dullard clearly didn't have a clue and it's deeply flawed...

...bare with me...
Those of you Facebookers may be wondering what Mr. Robin Guy is up to? http://www.facebook.com/robinguydrummer?ref=ts
VladDracii
 
Posts: 296
Joined: 23rd Apr 08, 18:13
Location: Eastbourne

Postby Ean » 14th Aug 09, 15:07

Nope, it's all yours. I've got a version of it with some chords on, but I don't know if they're right as I've not tried it.
Ean Ü

"I have to go along with all this reclusive genius stuff... she's going to be very upset when she finds out I'm a reclusive wanker."
User avatar
Ean
Moderator
 
Posts: 4040
Joined: 10th Feb 06, 14:44
Location: Just next to my confuser

PreviousNext

Return to Wildhearts Music and General Chat

Who is online

Users browsing this forum: No registered users and 3 guests

cron