Guitar Tabs

Albums, singles, songs and general Wildhearts banter

Postby zachary_storm » 5th May 08, 11:40

awesome! nice one man!!

...hate the world day or fire up or shandy bang anyone?!

(i wish i was good at working songs out on my own! :lol: )
"ONLY THOSE THAT KNOW HOW TO ROCK KNOW WHEN TO ROLL!!!"
zachary_storm
 
Posts: 251
Joined: 15th Dec 07, 20:53
Location: Rochdale, Manchester

Postby VladDracii » 5th May 08, 14:58

zachary_storm wrote:awesome! nice one man!!

...hate the world day or fire up or shandy bang anyone?!

(i wish i was good at working songs out on my own! :lol: )


Run over to ultimate-guitar.com, they got an awesome powertab for hate the world day, it's so cool to play along to, favorite WH song for me...
Those of you Facebookers may be wondering what Mr. Robin Guy is up to? http://www.facebook.com/robinguydrummer?ref=ts
VladDracii
 
Posts: 296
Joined: 23rd Apr 08, 18:13
Location: Eastbourne

Postby zachary_storm » 5th May 08, 16:51

VladDracii wrote:
zachary_storm wrote:awesome! nice one man!!

...hate the world day or fire up or shandy bang anyone?!

(i wish i was good at working songs out on my own! :lol: )


Run over to ultimate-guitar.com, they got an awesome powertab for hate the world day, it's so cool to play along to, favorite WH song for me...


ah ok kool! cheers man shall check it out... although i gave up on powertab aboot 2 yrs ago because it was working well & it was like... amazing because i'd never seen it before... & then it just stopped playing the songs for me... i've tried reinstalling it and everything... so i've not used it since...for, like i said, about 2 yrs!
"ONLY THOSE THAT KNOW HOW TO ROCK KNOW WHEN TO ROLL!!!"
zachary_storm
 
Posts: 251
Joined: 15th Dec 07, 20:53
Location: Rochdale, Manchester

Postby Velvet Presley » 12th May 08, 14:04

I know it's rude to ask but has anyone got anything around and about an Urge guitar tab?
Velvet Presley
 
Posts: 220
Joined: 2nd May 07, 11:00
Location: Edinburgh via Newcastle

Postby Sarc » 12th May 08, 14:07

Velvet Presley wrote:I know it's rude to ask but has anyone got anything around and about an Urge guitar tab?


Urge is pretty much just E B C# A

With this stuck in on the chorus, its been a while since i played along with it so I may be wrong

B-----8
G-----7
D-----6
A-----7
Not sent from my fucking iphone.

The Wicked Mod of the South.

Go here you might like it.
http://z6.invisionfree.com/Eureka_Machines/index.php
User avatar
Sarc
 
Posts: 2822
Joined: 25th Apr 07, 21:27
Location: Brighton

Postby VladDracii » 12th May 08, 14:44

Code: Select all
He's absolutely correct for verse, basically think motorcycle emptiness and you wont go far wrong :D

Try alternating the E5th chord on the 7th fret by sliding the root note on the A string down to the 6th fret and back again, eg

-9-9-9-9-9-9-9-9-9-9-
-9-9-9-9-9-9-9-9-9-9-
-7-7-7-7-6-7-7-6-7-7-
-0-0-0-0-0-0-0-0-0-0-

Heavy part kicks in, something to do with e5th down the low end but the distortion, for me, makes working that out next to impossible, trying fucking around with some natural harmonics, i really can't shed much light, anyway, heavy part "down, down DOWN" goes onto this...

---9-9-9-9-9-9---8---------------------------------------------------------------
---7-7-7-7-7-7---6--8---------4----------10--10--X--10--X--10-X-8-------10--10---
---7-7-7-7-7-7---6--6--SLIDE--2--SLIDE---8---8---X--8---X--8--X-6-SLIDE-8---8---- etc.


Thats pretty much the essentials
Last edited by VladDracii on 21st May 08, 01:41, edited 1 time in total.
Those of you Facebookers may be wondering what Mr. Robin Guy is up to? http://www.facebook.com/robinguydrummer?ref=ts
VladDracii
 
Posts: 296
Joined: 23rd Apr 08, 18:13
Location: Eastbourne

Postby Sarc » 12th May 08, 14:47

Thats the bugger I knew it was something along those lines cheers for sorting that out Vlad, no doubt Beany will clean it up for us and place it up in the right order when he gets on tonight,
Not sent from my fucking iphone.

The Wicked Mod of the South.

Go here you might like it.
http://z6.invisionfree.com/Eureka_Machines/index.php
User avatar
Sarc
 
Posts: 2822
Joined: 25th Apr 07, 21:27
Location: Brighton

Postby VladDracii » 12th May 08, 15:08

No worries matey, shame I only just discovered this fucking site, I've worked out most of their stuff, had no idea there were so many other people after tabs aswel
Those of you Facebookers may be wondering what Mr. Robin Guy is up to? http://www.facebook.com/robinguydrummer?ref=ts
VladDracii
 
Posts: 296
Joined: 23rd Apr 08, 18:13
Location: Eastbourne

Postby Ean » 12th May 08, 21:42

Sarc wrote:Thats the bugger I knew it was something along those lines cheers for sorting that out Vlad, no doubt Beany will clean it up for us and place it up in the right order when he gets on tonight,

Christ knows mate. You might find it easier to work out from the Live Begins... version though?
Ean Ü

"I have to go along with all this reclusive genius stuff... she's going to be very upset when she finds out I'm a reclusive wanker."
User avatar
Ean
Moderator
 
Posts: 4040
Joined: 10th Feb 06, 14:44
Location: Just next to my confuser

Postby VladDracii » 12th May 08, 21:54

Alas, not having an active credit card makes little luxuries such as rare wildies albums an impossibility :cry:
Those of you Facebookers may be wondering what Mr. Robin Guy is up to? http://www.facebook.com/robinguydrummer?ref=ts
VladDracii
 
Posts: 296
Joined: 23rd Apr 08, 18:13
Location: Eastbourne

Postby Sarc » 12th May 08, 22:34

Ean wrote:
Sarc wrote:Thats the bugger I knew it was something along those lines cheers for sorting that out Vlad, no doubt Beany will clean it up for us and place it up in the right order when he gets on tonight,

Christ knows mate. You might find it easier to work out from the Live Begins... version though?


In other words, he has no fucking idea, AT LAST we've found something Beany can't do hehehehe
Not sent from my fucking iphone.

The Wicked Mod of the South.

Go here you might like it.
http://z6.invisionfree.com/Eureka_Machines/index.php
User avatar
Sarc
 
Posts: 2822
Joined: 25th Apr 07, 21:27
Location: Brighton

Postby Ean » 12th May 08, 22:45

Hah! I think not! I just haven't ever tried to work it out.




But, yeah, probably.
Ean Ü

"I have to go along with all this reclusive genius stuff... she's going to be very upset when she finds out I'm a reclusive wanker."
User avatar
Ean
Moderator
 
Posts: 4040
Joined: 10th Feb 06, 14:44
Location: Just next to my confuser

Postby Velvet Presley » 13th May 08, 02:20

Gentlemen, you are indeed legends.

Cheers muchly.
Velvet Presley
 
Posts: 220
Joined: 2nd May 07, 11:00
Location: Edinburgh via Newcastle

Postby Alteredcarbon » 25th May 08, 20:46

Do the channel bop for those that want it. Not perfect but close enough, I think.

Code: Select all
Do the Channel bop
Tuning: Eb


x = mute strings

eb|------------------------------------------------------|
Bb|------------------------------------------------------|
Gb|------------------------------------------------------|
Db|------------------------------------------------------| 
Ab|------------------------------------------------------|
Eb|--3--3-4-5--5-6-7-0--5--5-4-3--3-4-5--5-6-7--0--0--0--|


eb|-------------------------------------------------------------------------------------------------------------|
Bb|-------------------------------------------------------------------------------------------------------------|
Gb|-------------------------------------------------------------------------------------9-9-9-9-9-9-9-9-9-9-9-9-|
Db|-------------------------------------------------------------------------------------9-9-9-9-9-9-9-9-9-9-9-9-|
Ab|-------------------------------------------------------------------------------------7-7-7-7-7-7-7-7-7-7-7-7-|
Eb|-0-3--3-4-5--5-6-7-0--5--5-4-3--3-4-5--5-6-7--0--0--0--0--0--0-6-7-5-6-7--0--0--0--0-------------------------|


eb|------------------------------------------------------|
Bb|------------------------------------------------------|
Gb|------------------------------------------------------|
Db|------------------------------------------------------| 
Ab|--5--5-6-7--7-8-9-2--7--7-6-5--5-6-7--7-8-9--2--2--2--|
Eb|--3--3-4-5--5-6-7-0--5--5-4-3--3-4-5--5-6-7--0--0--0--|


eb|-----------------------------------------------------------------------------------------------------------|
Bb|-----------------------------------------------------------------------------------------------------------|
Gb|-----------------------------------------------------------------------------------------------------------|
Db|-----------------------------------------------------------------------------------------------------------| 
Ab|--2-5--5-6-7--7-8-9-2--7--7-6-5--5-6-7--7-8-9--2--2--2--2--2--7-8-9-7-8-9--2--2--2--2--2--7-8-9-7-8-9------|
Eb|--0-3--3-4-5--5-6-7-0--5--5-4-3--3-4-5--5-6-7--0--0--0--0--0--5-6-7-5-6-7--0--0--0--0--0--5-6-7-5-6-7------|



eb|-----------------------------------------------------------|
Bb|-----------------------------------------------------------|
Gb|-------------------------9---9---9---9---9---9---9---9-----|
Db|-----------------------------------------------------------| 
Ab|--2--2--2--2--2--2--2--2-7-2-7-2-7-2-7-2-7-2-7-2-7-2-7-----|
Eb|--0--0--0--0--0--0--0--0---0---0---0---0---0---0---0-------|


   (shut your mouth, can't you see that I'm ignoring you?...)
eb|----0----------0---------------------0------0------------|
Bb|----0----------2----------2----------2----0---0----------|
Gb|----1----------2----------2----------2-------------------| x2
Db|----2----------2----------4----------2-------------------| 
Ab|----2--------0-0----------4--------0-0-------------------|
Eb|--0-0-------------------2-2------------------------------|



   (you've got to put me out...)
eb|-----------------------------------------------------------------------------------|
Bb|-----------------------------------------------------------------------------------|
Gb|---9----4----9----4----9--4--9-------9----4----9----4---x-x-x-x---x--x-x-x-x-x-x---|
Db|--------------------------------------------------------x-x-x-x---x--x-x-x-x-x-x---| 
Ab|---7----2----7----2----7--2--7-------7----2----7----2---x-x-x-x---x--x-x-x-x-x-x---|
Eb|--------------------------------------------------------x-x-x-x---x--x-x-x-x-x-x---|
  |                                                                                   |
  |                                                                                   |
eb|-----------------------------------------------------------------------------------|
Bb|-----------------------------------------------------------------------------------|
Gb|-------------------------------------------------------x-x-x-x---x--x-x-x-x-x-x----|
Db|-------------------------------------------------------x-x-x-x---x--x-x-x-x-x-x----| 
Ab|--5--5-5-----7--7-7--2--2----7--7-7--5--5-5--7--7-7----x-x-x-x---x--x-x-x-x-x-x----|
Eb|--3--3-3-----5--5-5--0--0----5--5-5--3--3-3--5--5-5----x-x-x-x---x--x-x-x-x-x-x----|


   (you're wearing on my patience...)
eb|---------------------------------------------------------------|
Bb|---------------------------------------------------------------|
Gb|---9----4----9----4----9--4--9-------9----4----9----4---9------|
Db|---------------------------------------------------------------| 
Ab|---7----2----7----2----7--2--7-------7----2----7----2---7------|
Eb|---------------------------------------------------------------|
  |                                                               |
  |                                                               |
eb|---------------------------------------------------------------|
Bb|---------------------------------------------------------------|
Gb|---------------------------------------------------------------|
Db|-------------------------------------------------------2-------| 
Ab|--5--5-5-----7--7-7--2--2----7--7-7--5--5-5--7--7-7----2-------|
Eb|--3--3-3-----5--5-5--0--0----5--5-5--3--3-3--5--5-5----0-------|


   (cause I'm not alone...)
eb|---------0-------------0----0---------------|
Bb|---------0-------------0----2--------4------|
Gb|--6-6-6--6----4-4-4-4--4----2--------4------|
Db|--6-6-6--6----4-4-4-4--4----2--------4------| 
Ab|--4-4-4--4----2-2-2-2--2----0--------2------|
Eb|--------------------------------------------|


   Chorus: (I've got conversation...)
eb|-----------------3--3-3--3-3-3--2---2---3-2---2-------------------3--3-3--3-3-3--2---2---3-2---2----0-------|
Bb|--1--1-1--1-1-1--3--3-3--3-3-3--3-3---3-----3------1--1-1--1-1-1--3--3-3--3-3-3--3-3---3-----3------2-------|
Gb|--0--0-0--0-0-0--0--0-0--0-0-0--2------------------0--0-0--0-0-0--0--0-0--0-0-0--2------------------2-------|
Db|--2--2-2--2-2-2--0--0-0--0-0-0--0------------------2--2-2--2-2-2--0--0-0--0-0-0--0------------------2-------|
Ab|--3--3-3--3-3-3--2--2-2--2-2-2---------------------3--3-3--3-3-3--2--2-2--2-2-2---------------------0-------|
Eb|-----------------3--3-3--3-3-3------------------------------------3--3-3--3-3-3-----------------------------|



   (all of the good boys and girls in the world do the channel bop)
eb|----3------3------2------0------3-3----3-3-------|
Bb|------3------3------3------0----3-3----3-3-------|
Gb|-------------------------------------------------| x2
Db|----------------0--------------------------------| 
Ab|--3--------------------0------3------------------|
Eb|---------3---------------------------3-----------|



eb|----3------3------2------0----0--------------------------------|
Bb|------3------3------3------0--0--------------------------------|
Gb|------------------------------1----9-9-9-9-9-9-9-9-9-9-9-9-----|
Db|----------------0-------------2----9-9-9-9-9-9-9-9-9-9-9-9-----| 
Ab|--3--------------------0------2----7-7-7-7-7-7-7-7-7-7-7-7-----|
Eb|---------3--------------------0--------------------------------|



   (Late at night I lock myself...)
eb|----0----------0---------------------0------0------------|
Bb|----0----------2----------2----------2----0---0----------|
Gb|----1----------2----------2----------2-------------------| x2
Db|----2----------2----------4----------2-------------------| 
Ab|----2--------0-0----------4--------0-0-------------------|
Eb|--0-0-------------------2-2------------------------------|


   (So when I choke on...)
eb|----------------------------------------------------------------------------|
Bb|----------------------------------------------------------------------------|
Gb|---9----4----9----4----9--4--9-------9----4----9----4---x-x-x-x---x-x-x-x---|
Db|--------------------------------------------------------x-x-x-x---x-x-x-x---| 
Ab|---7----2----7----2----7--2--7-------7----2----7----2---x-x-x-x---x-x-x-x---|
Eb|--------------------------------------------------------x-x-x-x---x-x-x-x---|
  |                                                                            |
  |                                                                            |
eb|----------------------------------------------------------------------------|
Bb|----------------------------------------------------------------------------|
Gb|-------------------------------------------------------x-x-x-x---x-x-x-x----|
Db|-------------------------------------------------------x-x-x-x---x-x-x-x----| 
Ab|--5--5-5-----7--7-7--2--2----7--7-7--5--5-5--7--7-7----x-x-x-x---x-x-x-x----|
Eb|--3--3-3-----5--5-5--0--0----5--5-5--3--3-3--5--5-5----x-x-x-x---x-x-x-x----|


   (shit out of things...)
eb|---------------------------------------------------------------|
Bb|---------------------------------------------------------------|
Gb|---9----4----9----4----9--4--9-------9----4----9----4---9------|
Db|---------------------------------------------------------------| 
Ab|---7----2----7----2----7--2--7-------7----2----7----2---7------|
Eb|---------------------------------------------------------------|
  |                                                               |
  |                                                               |
eb|---------------------------------------------------------------|
Bb|---------------------------------------------------------------|
Gb|---------------------------------------------------------------|
Db|-------------------------------------------------------2-------| 
Ab|--5--5-5-----7--7-7--2--2----7--7-7--5--5-5--7--7-7----2-------|
Eb|--3--3-3-----5--5-5--0--0----5--5-5--3--3-3--5--5-5----0-------|


   (au revoir, closing down...)
eb|---------0-------------0----0--0--0--0----------|
Bb|---------0-------------0----2--2--2--2--4--4----|
Gb|--6-6-6--6----4-4-4-4--4----2--2--2--2--4--4----|
Db|--6-6-6--6----4-4-4-4--4----2--2--2--2--4--4----| 
Ab|--4-4-4--4----2-2-2-2--2----0--0--0--0--2--2----|
Eb|------------------------------------------------|


   Chorus: (I've got conversation...)
eb|-----------------3--3-3--3-3-3--2---2---3-2---2-------------------3--3-3--3-3-3--2---2---3-2---2----0-------|
Bb|--1--1-1--1-1-1--3--3-3--3-3-3--3-3---3-----3------1--1-1--1-1-1--3--3-3--3-3-3--3-3---3-----3------2-------|
Gb|--0--0-0--0-0-0--0--0-0--0-0-0--2------------------0--0-0--0-0-0--0--0-0--0-0-0--2------------------2-------|
Db|--2--2-2--2-2-2--0--0-0--0-0-0--0------------------2--2-2--2-2-2--0--0-0--0-0-0--0------------------2-------|
Ab|--3--3-3--3-3-3--2--2-2--2-2-2---------------------3--3-3--3-3-3--2--2-2--2-2-2---------------------0-------|
Eb|-----------------3--3-3--3-3-3------------------------------------3--3-3--3-3-3-----------------------------|


   (all of the good boys and girls in the world do the channel bop)
eb|----3------3------2------0------3-3----3-3-------|
Bb|------3------3------3------0----3-3----3-3-------|
Gb|-------------------------------------------------| x2
Db|----------------0--------------------------------| 
Ab|--3--------------------0------3------------------|
Eb|---------3---------------------------3-----------|



eb|----3------3------2------0----0----------------------------------------------------------------------------|
Bb|------3------3------3------0--0----------------------------------------------------------------------------|
Gb|------------------------------1----------------------------------------------------------------------------|
Db|----------------0-------------2----------------------------------------------------------------------------| 
Ab|--3--------------------0------2-------2-2-2-2--2-2-2-2--2-2-2-2--2-2-2-2--2-2-2-2--2-2-2-2--2-2-2-2--2-2---|
Eb|---------3--------------------0-------0-0-0-0--0-0-0-0--0-0-0-0--0-0-0-0--0-0-0-0--0-0-0-0--0-0-0-0--0-0---|



eb|-------------------------------------------------------|
Bb|-------------------------------------------------------|
Gb|-------------------------------------------------------|
Db|-----------------------------------------------------6-| 
Ab|--2----------------6----------------8----------------4-|
Eb|--0----------------4----------------6------------------|


eb|-------------------------------------------------------|
Bb|-------------------------------------------------------|
Gb|----------------------4-4---------------------4-4------| x2
Db|--------2--------2----2-2-------2--------2----2-2------| 
Ab|--4--------4----------------4-------4------------------|
Eb|----3-0------3-0--------------3-0-----3-0--------------|


eb|--------------------------------------------------------------------------------------------------|
Bb|--------------------------------------------------------------------------------------------------|
Gb|--4-4-------------4-4-------------4-4-------------------------------------------------------------| x2
Db|--2-2----4-4-4----2-2----4-4-4----2-2--------------------5-5-5-----------5-5-5-----------4-4-4----| 
Ab|---------2-2-2-----------2-2-2-----------4-4-4----6-6----3-3-3----6-6----3-3-3----6-6----2-2-2----|
Eb|-----------------------------------------2-2-2----4-4-------------4-4-------------4-4-------------|


eb|-------------------------------------------------------|
Bb|-------------------------------------------------------|
Gb|----------------------4-4---------------------4-4------| x2
Db|--------2--------2----2-2-------2--------2----2-2------| 
Ab|--4--------4----------------4-------4------------------|
Eb|----3-0------3-0--------------3-0-----3-0--------------|


   w/ double time feel (5:03)
eb|-------------------------------------------------------|
Bb|-------------------------------------------------------|
Gb|----------------------4-4---------------------4-4------| x2
Db|--------2--------2----2-2-------2--------2----2-2------| 
Ab|--4--------4----------------4-------4------------------|
Eb|----3-0------3-0--------------3-0-----3-0--------------|


eb|------------------------------------------------------------------------------------|
Bb|------------------------------------------------------------------------------------|
Gb|------------------------------------------------------------------------------------| x2
Db|--2-0---------------5-2--2-0---------------5-2--0------------5-2--0-----------------| 
Ab|-------2-1--2-0---------------2-1--2-0------------2--1-0------------2--1-0----------|
Eb|----------------3-0--------------------3-0---------------3-0----------------3-0-----|


eb|-----------------------------------------|
Bb|-----------------------------------------|
Gb|-----------------------------------------| x4
Db|--0------------0-------------5--6--------| 
Ab|----2-1-0---------2-1-0------3--4--------|
Eb|----------3-0-----------3-0--------------|


  w/ swing feel (cold patootie tango...)
eb|-----------------------------------------|
Bb|-----------------------------------------|
Gb|-----------------------------------------| x4
Db|--0------------0-------------5--6--------| 
Ab|----2-1-0---------2-1-0------3--4--------|
Eb|----------3-0-----------3-0--------------|


eb|---------------------------------------------------------------------------------------------------------------------|
Bb|---------------------------------------------------------------------------------------------------------------------|
Gb|---------------------------------------------------------------------------------------------------------------------|
Db|-9-9--9-9-9-9-9-9-9-9-9-9-9-9-9-9------------------------------------------------------------------------------------| 
Ab|-7-7--7-7-7-7-7-7-7-7-7-7-7-7-7-7--7-8-9-7-8-9-2--2-2-2-2-2-2-2-2-2-2-2-2--7-8-9-7-8-9-2--2-2-2-2-2-2-2-2-2-2-2-2----|
Eb|-----------------------------------5-6-7-5-6-7-0--0-0-0-0-0-0-0-0-0-0-0-0--5-6-7-5-6-7-0--0-0-0-0-0-0-0-0-0-0-0-0----|


eb|-----------------------------------------------------------------------|
Bb|-----------------------------------------------------------------------|
Gb|------------------------------------------9-9-9-9-9-9-9-9-9-9-9-9------|
Db|------------------------------------------9-9-9-9-9-9-9-9-9-9-9-9------| 
Ab|--7-8-9-7-8-9-2--2-2-2-2-2-2-2-2-2-2-2-2--7-7-7-7-7-7-7-7-7-7-7-7------|
Eb|--5-6-7-5-6-7-0--0-0-0-0-0-0-0-0-0-0-0-0-------------------------------|


   (cause I'm not alone, by myself...)
eb|---------0-------------0----0--0--0--0----------|
Bb|---------0-------------0----2--2--2--2--4--4----|
Gb|--6-6-6--6----4-4-4-4--4----2--2--2--2--4--4----|
Db|--6-6-6--6----4-4-4-4--4----2--2--2--2--4--4----| 
Ab|--4-4-4--4----2-2-2-2--2----0--0--0--0--2--2----|
Eb|------------------------------------------------|


   Chorus: (I've got conversation...)
eb|-----------------3--3-3--3-3-3--2---2---3-2---2-------------------3--3-3--3-3-3--2---2---3-2---2----0-------|
Bb|--1--1-1--1-1-1--3--3-3--3-3-3--3-3---3-----3------1--1-1--1-1-1--3--3-3--3-3-3--3-3---3-----3------2-------|
Gb|--0--0-0--0-0-0--0--0-0--0-0-0--2------------------0--0-0--0-0-0--0--0-0--0-0-0--2------------------2-------|
Db|--2--2-2--2-2-2--0--0-0--0-0-0--0------------------2--2-2--2-2-2--0--0-0--0-0-0--0------------------2-------|
Ab|--3--3-3--3-3-3--2--2-2--2-2-2---------------------3--3-3--3-3-3--2--2-2--2-2-2---------------------0-------|
Eb|-----------------3--3-3--3-3-3------------------------------------3--3-3--3-3-3-----------------------------|


   (all of the good boys and girls in the world do the channel bop)
eb|----3------3------2------0------3-3----3-3-------|
Bb|------3------3------3------0----3-3----3-3-------|
Gb|-------------------------------------------------| x6
Db|----------------0--------------------------------| 
Ab|--3--------------------0------3------------------|
Eb|---------3---------------------------3-----------|


eb|----3------3------2------0--------|
Bb|------3------3------3------0------|
Gb|----------------------------------|
Db|----------------0-----------------| 
Ab|--3--------------------0----------|
Eb|---------3------------------------|
Alteredcarbon
 
Posts: 70
Joined: 25th Apr 07, 02:14
Location: Manchester

Postby Assmask » 11th Jul 08, 10:24

Has anyone got Why You Lie tabbed?
8==m==D
8=m===D
8===m=D
8m====D--=__

The Big Grizzly

https://www.facebook.com/biggrizzlyband
Assmask
 
Posts: 839
Joined: 30th Mar 06, 11:22
Location: Belfast

PreviousNext

Return to Wildhearts Music and General Chat

Who is online

Users browsing this forum: No registered users and 3 guests

cron