Guitar Tabs

Albums, singles, songs and general Wildhearts banter

Postby Ean » 10th Feb 08, 13:57

Lord Iffy Boatrace wrote:fantastic work Ean. you aint got Lake of Piss have you? :D


No. I've not really ever bothered as I don't like the song that much. :(
Ean Ü

"I have to go along with all this reclusive genius stuff... she's going to be very upset when she finds out I'm a reclusive wanker."
User avatar
Ean
Moderator
 
Posts: 4040
Joined: 10th Feb 06, 14:44
Location: Just next to my confuser

Postby Ean » 12th Feb 08, 22:12

Anyhoo... I still hate the chorus, but here goes.

Code: Select all
Lake Of Piss

The Wildhearts

Tune to Eb

INTRO
  E (The pulsing is created using an effects unit)
e-----------------|-----------------|-----------------|------------------||
B-----------------|-----------------|-----------------|-----------------O||
G-7-9-9-9-9-7-7-7-|-7-9-9-9-9-7-7-7-|-7-9-9-9-9-7-7-7-|-7-9-9-9-9-7-7-7--||
D-----------------|-----------------|-----------------|------------------||
A-----------------|-----------------|-----------------|-----------------O||
E-----------------|-----------------|-----------------|------------------||

e-----------------|-----------------|-----------------|----------------- ||
B-----------------|-----------------|-----------------|-----------------O||
G-7-9-9-9-9-7-7-7-|-7-9-9-9-9-7-7-7-|-7-9-9-9-9-7-7-7-|-7-9-9-9-9-7-7-7--||
D-----------------|-----------------|-----------------|------------------||
A-----------------|-----------------|-----------------|-----------------O||
E-----------------|-----------------|-----------------|------------------||
|                                                                        ||
e-----------------|-----------------|-----------------|------------------||
B-----------------|-----------------|-----------------|-----------------O||
G-----------------|-----------------|-----------------|------------------||
D-7/9---9-9\7---7-|-7/9---9-9\7---7-|-7/9---9-9\7---7-|-7/9---9-9\7---7--||
A-5/7---7-7\5---5-|-5/7---7-7\5---5-|-5/7---7-7\5---5-|-5/7---7-7\5---5-O||
E-----------------|-----------------|-----------------|------------------||

A
Feeling underlined
  G                      F#
A bad case of loving you now
               F
Take a helping hand
     A
Just pushed it and crushed it
   G                       F#
It can’t be undone it’s so dumb
              B
Living life unsung

   A     B
So run
C#            D             E     F#
Take what you can then just go
  D                          A     B
Regret what you had it won't show
     C#         D         A     G     F#
This feeling of hating so bad
   D        D        D
Compared to what you had

         E    E    E              E    E  E
When you sell your soul down on a lake of piss
          D    D  D               A    A  A
Screaming this is this, screaming this is this
         E    E    E              E    E  E
When you sell your soul down on a lake of piss
          D    D  D               A    A  A
Screaming this is this, screaming this is this
          D           A     D     A
Screaming this is this
          D           A     D     A
Screaming this is this

e-----------------|-----------------|-----------------|-----------------|
B-----------------|-----------------|-----------------|-----------------|
G-----------------|-----------------|-----------------|-----------------|
D-7/9---9-9\7---7-|-7/9---9-9\7---7-|-7/9---9-9\7---7-|-7/9---9-9\7---7-|
A-5/7---7-7\5---5-|-5/7---7-7\5---5-|-5/7---7-7\5---5-|-5/7---7-7\5---5-|
E-----------------|-----------------|-----------------|-----------------|

A
Get it right this time
    G                      F#
And pick up the pieces you find
                 F
Cut it from your mind
      A
Don't take it, just break it
       G                            F#
You're caught in this life. It's so wrong
            B
Trying to belong

   A     B
So run
C#            D             E     F#
Take what you can then just go
  D                          A     B
Regret what you had it won't show
     C#         D         A     G     F#
This feeling of hating so bad
   D        D        D
Compared to what you had

         E    E    E              E    E  E
When you sell your soul down on a lake of piss
          D    D  D               A    A  A
Screaming this is this, screaming this is this
         E    E    E              E    E  E
When you sell your soul down on a lake of piss
          D    D  D               A    A  A
Screaming this is this, screaming this is this
          D           A     D     A
Screaming this is this
          D           A     D     A
Screaming this is this

e-----------------|-----------------|-----------------|-----------------|
B-----------------|-----------------|-----------------|-----------------|
G-----------------|-----------------|-----------------|-----------------|
D-7/9---9-9\7---7-|-7/9---9-9\7---7-|-7/9---9-9\7---7-|-7/9---9-9\7-----|
A-5/7---7-7\5---5-|-5/7---7-7\5---5-|-5/7---7-7\5---5-|-5/7---7-7\5---5-|
E-----------------|-----------------|-----------------|---------------3-|

e-----------------|-----------------|-----------------|-----------------|
B-----------------|-----------------|-----------------|-----------------|
G-----------------|-----------------|-----------------|-----------------|
D-----------------|-----------------|-----------------|---------------7-|
A-5/7---7-7\5---5-|-5/7---7-7\5---5-|-5/7---7-7\5---5-|-5/7---7-7\5---5-|
E-3/5---5-5\3---3-|-3/5---5-5\3---3-|-3/5---5-5\3---3-|-3/5---5-5\3-----|

e-----------------|-----------------|-----------------|-----------------|
B-----------------|-----------------|-----------------|-----------------|
G-----------------|-----------------|-----------------|-----------------|
D-7/9---9-9\7---7-|-7/9---9-9\7---7-|-7/9---9-9\7---7-|-7/9---9-9\7-----|
A-5/7---7-7\5---5-|-5/7---7-7\5---5-|-5/7---7-7\5---5-|-5/7---7-7\5---5-|
E-----------------|-----------------|-----------------|---------------3-|

e-----------------|-----------------|-----------------|-----------------|
B-----------------|-----------------|-----------------|-----------------|
G-----------------|-----------------|-----------------|-----------------|
D-----------------|-----------------|-----------------|-----------------|
A-5/7---7-7\5---5-|-5/7---7-7\5---5-|-5/7---7-7\5---5-|-5/7---7-7\5---5-|
E-3/5---5-5\3---3-|-3/5---5-5\3---3-|-3/5---5-5\3---3-|-3/5---5-5\3---3-|

6/4 section

e-------------------------|-------------------------|-------------------------|-------------------------
B-------------------------|-------------------------|-------------------------|-------------------------
G-------------------------|-------------------------|-------------------------|-------------------------
D-2---2---x-x---x-----5-7-|-2---2---x-x---x-----5-7-|-2---2---x-x---x-----5-7-|-2---2---x-x---x-----5-7-
A-0---0---x-x---x-5-7-----|-0---0---x-x---x-5-7-----|-0---0---x-x---x-5-7-----|-0---0---x-x---x-5-7-----
E-------------------------|-------------------------|-------------------------|-------------------------

e-------------------------|-------------------------|-------------------------|-------------------------
B-------------------------|-------------------------|-------------------------|-------------------------
G-------------------------|-------------------------|-------------------------|-------------------------
D-2---2---x-x---x-----5-7-|-2---2---x-x---x-----5-7-|-2---2---x-x---x-----5-7-|-2---2---x-x---x-----5-7-
A-0---0---x-x---x-5-7-----|-0---0---x-x---x-5-7-----|-0---0---x-x---x-5-7-----|-0---0---x-x---x-5-7-----
E-------------------------|-------------------------|-------------------------|-------------------------

e-------------------------|-------------------------|-------------------------|-------------------------
B-------------------------|-------------------------|-------------------------|-------------------------
G-------------------------|-------------------------|-------------------------|-------------------------
D-------------------------|-------------------------|-------------------------|-------------------------
A-2---2---------------5-7-|-2---2---------------5-7-|-2---2---------------5-7-|-2---2---------------5-7-
E-0---0---3-0-0-3-5-0-----|-0---0---3-0-0-3-5-0-----|-0---0---3-0-0-3-5-0-----|-0---0---3-0-0-3-5-0-----

e-------------------------|-------------------------|-------------------------|-------------------------
B-------------------------|-------------------------|-------------------------|-------------------------
G-------------------------|-------------------------|-------------------------|-------------------------
D-2---2---x-x---x-----5-7-|-2---2---x-x---x-----5-7-|-2---2---x-x---x-----5-7-|-2---2---x-x---x-----5-7-
A-0---0---x-x---x-5-7-----|-0---0---x-x---x-5-7-----|-0---0---x-x---x-5-7-----|-0---0---x-x---x-5-7-----
E-------------------------|-------------------------|-------------------------|-------------------------




e-------------------------|-------------------------|-------------------------|-------------------------
B-------------------------|-------------------------|-------------------------|-------------------------
G-------------------------|-------------------------|-------------------------|-------------------------
D-------------------------|-------------------------|-------------------------|-------------------------
A-2---2---------------5-7-|-2---2---------------5-7-|-2---2---------------5-7-|-2---2---------------5-7-
E-0---0---3-0-0-3-5-0-----|-0---0---3-0-0-3-5-0-----|-0---0---3-0-0-3-5-0-----|-0---0---3-0-0-3-5-0-----

e-------------------------|-------------------------|-------------------------|-----------------|
B-------------------------|-------------------------|-------------------------|-----------------|
G-------------------------|-------------------------|-----------------9-------|-12------14------|
D-------------------------|-------------------------|-10------12--------------|-----------------|
A-0-------3-------5-------|-7-------10------12------|-------------------------|-----------------|
E-------------------------|-------------------------|-------------------------|-----------------|
|                                                                                               |
e-------------------------|-------------------------|-------------------------|-----------------|
B-------------------------|-------------------------|-------------------------|-----------------|
G-------------------------|-------------------------|-------------------------|-----------------|
D-2-------5-------7-------|-----------------2-------|-5-------7-------9-------|-12--------------|
A-0-------3-------5-------|-2-------5-------0-------|-3-------5-------7-------|-10--------------|
E-------------------------|-0-------3---------------|-------------------------|-----------------|

Back to 4/4

e-----------------|-----------------|-----------------|-----------------|
B-----------------|-----------------|-----------------|-----------------|
G-----------------|-----------------|-----------------|-----------------|
D-7/9---9-9\7---7-|-7/9---9-9\7---7-|-7/9---9-9\7---7-|-7/9---9-9\7---7-|
A-5/7---7-7\5---5-|-5/7---7-7\5---5-|-5/7---7-7\5---5-|-5/7---7-7\5---5-|
E-----------------|-----------------|-----------------|-----------------|

e-----------------|-----------------|-----------------|-----------------|
B-----------------|-----------------|-----------------|-----------------|
G-----------------|-----------------|-----------------|-----------------|
D-7/9---9-9\7---7-|-7/9---9-9\7---7-|-7/9---9-9\7---7-|-7/9---9-9\7-----|
A-5/7---7-7\5---5-|-5/7---7-7\5---5-|-5/7---7-7\5---5-|-5/7---7-7\5-----|
E-----------------|-----------------|-----------------|-----------------|

   A     B
So run
C#            D             E     F#
Take what you can then just go
  D                          A     B
Regret what you had it won't show
     C#         D         A     G     F#
This feeling of hating so bad
   D        D        D
Compared to what you had

         E
When you sell your soul down on a lake of piss
          D                       A
Screaming this is this, screaming this is this
         E
When you sell your soul down on a lake of piss
          D                       A
Screaming this is this, screaming this is this
         E
When you sell your soul down on the lake of piss
          D                       A
Screaming this is this, screaming this is this
         E
When you sell your soul down on a lake of piss
          D                       A
Screaming this is this, screaming this is this

D           A     D     A
This is this
          D           A     D     A     E
Screaming this is this


Tab by Ean (ean.coombs@gmail.com)
Last edited by Ean on 23rd Mar 08, 18:27, edited 1 time in total.
Ean Ü

"I have to go along with all this reclusive genius stuff... she's going to be very upset when she finds out I'm a reclusive wanker."
User avatar
Ean
Moderator
 
Posts: 4040
Joined: 10th Feb 06, 14:44
Location: Just next to my confuser

Postby Lord Iffy Boatrace » 12th Feb 08, 22:22

gr8 stuff again ean!! cheers :lol:
Lord Iffy Boatrace
 
Posts: 84
Joined: 20th Feb 06, 12:49
Location: East Kilbride, Scotland

Postby Ean » 12th Feb 08, 23:24

You might as well have Better Than Cable while I'm here...

Code: Select all
BETTER THAN CABLE

THE WiLDHEARTS

Tune to Eb

B C C# D
        You’re better than a Saturday night
E F F# G
        You’re better than killing a fight
F# G G# A
         You’re maybe better than the gift of sight
B C C# D              D
        You’re better, you’re better
B C C# D
        You’re better than my favourite shoes
E F F# G
        You’re better than beating the blues
F# G G# A
         You’re better than a new tattoo
B C C# D              D
        You’re better, you’re better
       F#                  G
        You’re better than satellite,
                D
        Staying up all night
             E   F#   G         E    F#   G    A    B    D    A
        In a thousand ways…

    D  A
        More danger than a stranger’s kiss
    D  A
        How in the world did I deserve all this?
    D  A                            D  A
        So come on (so come on)         So come on (so come on)
    D  A            
        So come on (so come on)         So come on
       
       C                            G
        You’re the bomb, you’re the one, the wow
       D              D
        You’re better, you’re better
       C                        G
        The dog’s balls and the cat’s meow
       D              D
        You’re better, you’re better
       C                    G
        Ain’t ever gonna be that guy hanging round
       D                        A
        Looking for somebody to kiss
               E            C          G           D
        Little one, well it don’t come better than this

B C C# D
        You’re better than making the rent
E F F# G
        You’re better than a night in a tent
F# G G# A
         You’re even better than 40 per cent
B C C# D              D
        You’re better, you’re better
B C C# D
        You’re better than seeing the world
E F F# G
        You’re better than Steve Earle
F# G G# A
         You’re even better than girls
B C C# D              D
        You’re better, you’re better
       F#                  G
        You’re better than sleeping late,
           D
        Or being straight

             E   F#   G           E    F#   G    A    B    D    A
        In a thousand ways…



    D  A
        More exciting than a night on the town
    D  A
        What would I do without you around?
    D  A                    D  A
        Oh yeah (oh yeah)       Oh yeah (oh yeah)
    D  A         
        Oh yeah (oh yeah)       Oh yeah
       
       C                            G
        You’re the bomb, you’re the one, the wow
       D              D
        You’re better, you’re better
       C                        G
        The dog’s balls and the cat’s meow
       D              D
        You’re better, you’re better
       C                    G
        Ain’t ever gonna be that guy hanging round
       D                        A
        Looking for somebody to kiss
               E            C          G           D
        Little one, well it don’t come better than this


     D-----------------------------------------------
     A-9----------9----------------7-------------7---
     E-7----------6----------------5-------------4---
        Had every drug in town, it told me I was down
     
     D-----------------------------------------------
     A-9--------------9------------7------------5----
     E-7--------------6------------5------------3----
        See through a cloudy haze, hope I come around
       D           G
        Now that I know ya
              D                   G
        And I sure am glad that I know ya
               E             A
        I need you, you need me
                     GGGGGGGG GGGGG
        So who needs drugs?

B C C# D
        You’re better than a ton in the car
E F F# G
        You’re better than a screaming guitar
F# G G# A
         You’re the best and you know you are
B C C# D              D
        You’re better, you’re better
       F#                  G
        You’re better than satellite,
                D
        Staying up all night
             E   F#   G           E    F#   G    A    B    D    A
        In a thousand ways...

    D  A
        And you do it like nobody can
    D  A
        And I’m the world’s most fortunate man
    D  A                    D  A
        Oh no (oh yeah)         Oh no (oh yeah)
    D  A         
        Oh no (oh yeah)         Whatever
       
       C                            G
        You’re the bomb, you’re the one, the wow
       D              D
        You’re better, you’re better
       C                        G
        The dog’s balls and the cat’s meow
       D              D
        You’re better, you’re better
       C                    G
        Ain’t ever gonna be that guy hanging round
       D                        A
        Looking for somebody to kiss
               E            C          G           D
        Little one, well it don’t come better than this
               E            C          G           D
        Little one, well it don’t come better than this

Tabbed by Ean (ean.coombs@googlemail.com)
Ean Ü

"I have to go along with all this reclusive genius stuff... she's going to be very upset when she finds out I'm a reclusive wanker."
User avatar
Ean
Moderator
 
Posts: 4040
Joined: 10th Feb 06, 14:44
Location: Just next to my confuser

EAN YOU RULE

Postby wildsam6o » 13th Feb 08, 01:54

THANK YOU THANK YOU THANK YOU!

ive been looking and trying to figure them out for ages!

lemme know what show your at anytime soon and ill get the beers is!

cheers mate :D
wildsam6o
 
Posts: 463
Joined: 5th Feb 08, 18:14
Location: Southend on sea

Postby wildsam6o » 13th Feb 08, 02:04

dont suppose you got any of the tabs from the new album

specially, the sweetest song or bi-polar???

love to knock those out sometime
wildsam6o
 
Posts: 463
Joined: 5th Feb 08, 18:14
Location: Southend on sea

Postby sonicshake » 13th Feb 08, 10:13

Also has anybody tabbed out the intro to 'Destroy All Monsters' yet? The bit where it's just vocals and guitar.

Been trying to work it out for ages now but I just can't get it right. Cheers! :D
sonicshake
 
Posts: 161
Joined: 15th Mar 06, 11:00

Postby zachary_storm » 14th Feb 08, 13:42

sonicshake wrote:Also has anybody tabbed out the intro to 'Destroy All Monsters' yet? The bit where it's just vocals and guitar.

Been trying to work it out for ages now but I just can't get it right. Cheers! :D


If you know the manic street preachers album "the holy bible" at all you could probly work it out from "she is suffering" not tried it myself but the first chord plucking thang sounds the same (but wi the wildhearts in Eb obviously!) Its the e chord on the a string! hope that helps a little bit!! :D

and while im here... action panzer tab anyone?! :P cheers!
"ONLY THOSE THAT KNOW HOW TO ROCK KNOW WHEN TO ROLL!!!"
zachary_storm
 
Posts: 251
Joined: 15th Dec 07, 20:53
Location: Rochdale, Manchester

Postby wildsam6o » 21st Apr 08, 21:32

sorry to drag this up again,

dont suppose anyone has the tab/chords for ... and the bullshit goes on (just stay) do they?

or if Ean could work his magic and knock it out for me that would be dam mega of you!

Cheers
wildsam6o
 
Posts: 463
Joined: 5th Feb 08, 18:14
Location: Southend on sea

Postby Ean » 21st Apr 08, 22:26

Code: Select all
And The Bullshit Goes On

The Wildhearts

Tune to Eb
                                                                  REPEAT x4
e---------------------------------|-----------------------------------||
B---------------------------------|----------------------------------O||
G---------------------------------|-----------------------------------||
D-------------------------------6-|-6---6-----------------------------||
A---------6-----7-7---7---6-------|---------6-----7-7---7---6--------O||
E-7---7---------------------------|-------------------------------7---||

                                                                  REPEAT x4
e---------------------------------|-----------------------------------||
B---------------------------------|----------------------------------O||
G---------------------------------|-----------------------------------||
D-------------------------------6-|-6---6-----------------------------||
A---------6-----7-7---7---6-------|---------6-----7-7---7---6--------O||
E-7---7---------------------------|-------------------------------7---||

e---------------------------------|---------------------------------|
B---------------------------------|---------------------------------|
G-6---------------6---------------|-6---------------6---------------|
D-6-------6-------6-------6-------|-6-------6-------6-------6-------|
A-4-------6-------4-------6-------|-4-------6-------4-------6-------|
E---------4---------------4-------|---------4---------------4-------|

e---------------------------------|---------------------------------|
B---------------------------------|---------------------------------|
G---------------------------------|---------------------------------|
D-------------------------------6-|-6---6---------------------------|
A---------6-----7-7---7---6-------|---------6-----7-7---7---6-------|
E-7---7---------------------------|-------------------------------7-|

e---------------------------------|---------------------------------|
B---------------------------------|---------------------------------|
G-6---------------6---------------|-6-6-------------6-6-------------|
D-6-------6-------6-------6-------|-6-6-----6-6-----6-6-----6-------|
A-4-------6-------4-------6-------|-4-4-----6-6-----4-4-----6-------|
E---------4---------------4-------|---------4-4-------------4-------|

e---------------------------------|---------------------------------|
B---------------------------------|---------------------------------|
G---------------------------------|---------------------------------|
D-------------------------------6-|-6---6---------------------------|
A---------6-----7-7---7---6-------|---------6-----7-7---7---6-------|
E-7---7---------------------------|-------------------------------7-|

e---------------------------------|---------------------------------|
B---------------------------------|---------------------------------|
G-6---------------6---------------|-6---------------6---------------|
D-6-------6-------6-------6-------|-6-------6-------6-------6-------|
A-4-------6-------4-------6-------|-4-------6-------4-------6-------|
E---------4---------------4-------|---------4---------------4-------|

e---------------------------------|---------------------------------|
B---------------------------------|---------------------------------|
G-2---------------2---------------|-2---------------2-------2-------|
D-2-------2-------2-------2-------|-2-------2-------2-------2-------|
A-0-------2-------0-------2-------|-0-------2-------0-------0-------|
E---------0---------------0-------|---------0-----------------------|

e---------------------------------|---------------------------------|
B---------------------------------|---------------------------------|
G---------------------------------|---------------------------------|
D-2-------9-------9---8-------8---|-----6---6-----------4---4---6---|
A-2-------7-------7---6-------6---|-----4---4-----------2---2---4---|
E-0-------------------------------|---------------------------------|

e---------------------------------|---------------------------------|
B---------------------------------|---------------------------------|
G---------------------------------|---------------------------------|
D-2-------9-------9---8-------8---|-----6---6-----------4---4-------|
A-2-------7-------7---6-------6---|-----4---4-----------2---2-------|
E-0-------------------------------|---------------------------------|

(Bass only)
C#                   F#          B
Life, you think it's all in your hands
         C#            F#         B
You play tricks, manipulating the band
         C#                  F#
You want fame, well here you are in the track
    B                           F#
And all without a spinal column in your back

(All in)
         C#             F#           B      
You make waves by being chinless and weak
         C#                F#        B
You want stars unless they happen to speak
        C#                   F#
You use blackmail tactics as part of your plan
   B                           F#
To undermine the battle of the working man

   G#               C#               F#                 C#    F# F#
So we just play and smile all day at things you say and do
    G#             Bb           B               F#  B F# F# B F# F#
And use our little victories as triumph for the few,
F#   
and that means you

        C#            F#
And the bullshit goes on
         C#                 F#
It don't matter how far you run
          C#           C                    B                    F#
It's that old familiar feeling when they're all convinced you're wrong
          C#        F#           C#               Bb
It's just different words in the same old fucking song
        F#            G#         (C#)
And the bullshit goes on, and it goes

                                                    |-PM--|
e---------------------------------|--------------------------------------||
B---------------------------------|-------------------------------------O||
G---------------------------------|--------------------------------------||
D-6---6---9-9-9-9-6---6---3-3-3-3-|-6---6---9-9-9-9-6-6-6-6-12-12-12-12--||
A-4---4---7-7-7-7-4---4---1-1-1-1-|-4---4---7-7-7-7-4-4-4-4-10-10-10-10-O||
E---------------------------------|--------------------------------------||

  |-PM--|             |-PM--|
e-----------------------------------------|-------------------------|
B-----------------------------------------|-------------------------|
G-----------------------------------------|-------------------------|
D-6-6-6-6-12-12-12-12-6-6-6-6-12-12-12-12-|-12-12-12-12-12-12-12-12-|
A-4-4-4-4-10-10-10-10-4-4-4-4-10-10-10-10-|-10-10-10-10-10-10-10-10-|
E-----------------------------------------|-------------------------|

         C#                F#           B
You pass blame because you think you're immune
              C#                             F#         B
And with your fingers simply be itching to reopen the wound
       C#            F#
You go on and on and on some more
     B                    F#
With stupid ideas that we all ignore

   G#                  C#                 F#                C#   F# F#
So take your place and hide your face and we'll get on just fine
G#                 Bb                     B              F#   B  F# F#
Keep the distance, earn respect and we'll work it out in time

        C#            F#
And the bullshit goes on
         C#                 F#
It don't matter how far you run
          C#           C                    B                    F#
It's that old familiar feeling when they're all convinced you're wrong
          C#        F#           C#               Bb
It's just different words in the same old fucking song
        F#            G#         (C#)
And the bullshit goes on, and it goes


                                                    |-PM--|       REPEAT x4
e---------------------------------|--------------------------------------||
B---------------------------------|-------------------------------------O||
G---------------------------------|--------------------------------------||
D-6---6---9-9-9-9-6---6---3-3-3-3-|-6---6---9-9-9-9-6-6-6-6-12-12-12-12--||
A-4---4---7-7-7-7-4---4---1-1-1-1-|-4---4---7-7-7-7-4-4-4-4-10-10-10-10-O||
E---------------------------------|--------------------------------------||

e---------------------------------|---------------------------------|
B---------------------------------|---------------------------------|
G---------------------------------|---------------------------------|
D-6-------9-------6-------3-------|-6-------9-------12------12------|
A-4-------7-------4-------1-------|-4-------7-------10------10------|
E---------------------------------|---------------------------------|

e---------------------------------|---------------------------------|
B---------------------------------|---------------------------------|
G---------------------------------|---------------------------------|
D-6-------9-------6-------3-------|-6-------5-------4-------3-------|
A-4-------7-------4-------1-------|-4-------3-------2-------1-------|
E---------------------------------|-----------------------------2-2-|

e---------------------------------|---------------------------------|
B---------------------------------|---------------------------------|
G---------------------------------|---------------------------------|
D---------4---------------4-------|---------4---------------4-------|
A---------------------------------|---------------------------------|
E-2---2-------2-2-2---2-------2-2-|-2---------------2-----------2-2-|

e---------------------------------|---------------------------------|
B---------------------------------|---------------------------------|
G---------------------------------|---------------------------------|
D---------4---------------4-------|---------4-----------------------|
A---------------------------------|---------------------------------|
E-2---2-------2-2-2---2-------2-2-|-2---------------2-------4-------|

e---------------------------------|---------------------------------|
B---------------------------------|---------------------------------|
G---------------------------------|---------------------------------|
D-------------------------------6-|-6---6---------------------------|
A---------6-----7-7---7---6-------|---------6-----7-7---7---6-------|
E-0--0----------------------------|-------------------------------7-|

e---------------------------------|---------------------------------|
B---------------------------------|---------------------------------|
G---------------------------------|---------------------------------|
D-------------------------------6-|-6---6---------------------------|
A---------6-----7-7---7---6-------|---------6-----7-7---7---6-------|
E-7---7---------------------------|-----------------------------2-2-|

e---------------------------------|---------------------------------|
B---------------------------------|---------------------------------|
G---------------------------------|---------------------------------|
D---------4---------------4-------|---------4---------------4-------|
A---------------------------------|---------------------------------|
E-2---2-------2-2-2---2-------2-2-|-2---------------2---------------|

e---------------------------------|---------------------------------|
B---------------------------------|---------------------------------|
G---------------------------------|---------------------------------|
D-4---------------4---------------|---------4-----------------------|
A---------------------------------|---------------------------------|
E---------2---------------2-------|-2---------------2-------4-------|

e---------------------------------|---------------------------------|
B---------------------------------|---------------------------------|
G---------------------------------|---------------------------------|
D-------------------------------6-|-6---6---------------------------|
A---------6-----7-7---7---6-------|---------6-----7-7---7---6-------|
E-0---0---------------------------|-------------------------------7-|

e---------------------------------|---------------------------------|
B---------------------------------|---------------------------------|
G---------------------------------|---------------------------------|
D-------------------------------6-|-6---6---------------------------|
A---------6-----7-7---7---6-------|---------6-----7-7---7---6-------|
E-7-------------------------------|-------------------------------7-|

  B                                 A
e---------------------------------|---------------------------------|
B---------------------------------|---------------------------------|
G---------------------------------|---------------------------------|
D-------------------------------6-|-6---6---------------------------|
A---------6-----7-7---7---6-------|---------6-----7-7---7---6-------|
E-7---7---------------------------|-------------------------------7-|

  E
e---------------------------------|---------------------------------|
B---------------------------------|---------------------------------|
G---------------------------------|---------------------------------|
D-------------------------------6-|-6---6---------------------------|
A---------6-----7-7---7---6-------|---------6-----7-7---7---6-------|
E-7---7---------------------------|-------------------------------7-|

  B                                 A
e---------------------------------|---------------------------------|
B---------------------------------|---------------------------------|
G---------------------------------|---------------------------------|
D-------------------------------6-|-6---6---------------------------|
A---------6-----7-7---7---6-------|---------6-----7-7---7---6---6---|
E-7---7---------------------------|---------------------------------|


E     F     F# F# G     A  A  G# G# B  Bb A


G#                C#            F#                  C#
I want you to see some honesty, you'll believe it's true
G#              C#            B                  F#
So come on open up to me like human beings are supposed to do

And so are you!

        C#            F#
And the bullshit goes on
         C#                 F#
It don't matter how far you run
          C#           C                    B                    F#
It's that old familiar feeling when they're all convinced you're wrong
          C#        F#           C#               Bb
It's just different words in the same old fucking song
        F#            G#         (C#)
And the bullshit goes on, and it goes

                                                    |-PM--|
e---------------------------------|--------------------------------------||
B---------------------------------|-------------------------------------O||
G---------------------------------|--------------------------------------||
D-6---6---9-9-9-9-6---6---3-3-3-3-|-6---6---9-9-9-9-6-6-6-6-12-12-12-12--||
A-4---4---7-7-7-7-4---4---1-1-1-1-|-4---4---7-7-7-7-4-4-4-4-10-10-10-10-O||
E---------------------------------|--------------------------------------||

                                    |-------------PM--------------|
e---------------------------------|---------------------------------|
B---------------------------------|---------------------------------|
G---------------------------------|---------------------------------|
D-6---6---9-9-9-9-6---6---3-3-3-3-|-6-6-6-6-6-6-6-6-6-6-6-6-6-6-6-6-|
A-4---4---7-7-7-7-4---4---1-1-1-1-|-4-4-4-4-4-4-4-4-4-4-4-4-4-4-4-4-|
E---------------------------------|---------------------------------|


Tab By Ean (ian.coombs@virgin.net)


Edited to fix the major balls up I just noticed in the riffy bit after the choruses. Image
Last edited by Ean on 20th Nov 08, 17:13, edited 6 times in total.
Ean Ü

"I have to go along with all this reclusive genius stuff... she's going to be very upset when she finds out I'm a reclusive wanker."
User avatar
Ean
Moderator
 
Posts: 4040
Joined: 10th Feb 06, 14:44
Location: Just next to my confuser

Postby Ean » 21st Apr 08, 22:34

Just Stay is essentially the same apart from the choruses, and the second verse repeats twice.

There are two different choruses, the first two times are the same and the third is different.

Code: Select all
Just Stay - Differences

     C#
Just stay
        Bb                F
Let the moment guide your way
         F#              C#
We’ll be gone before too long
                  A
I don’t wanna be alone tonight
     E                A
It’s much too late to say goodnight
   C#            Bb         F
So stay, if it’s only for today
   F#                     C#
So when your light goes on
                           A      F#
You’re the one to take the magic away
     B
Just stay

Stay with me

    C#           F#
And stay, it’s a common reaction,
C#            F#
Stay, don’t deny the attraction,
C#                A
I don’t wanna be alone tonight
     E                A
It’s much too late to say goodnight.
   C#             F#
So stay, ‘til I’m physically stronger,
C#           F#
Stay, just a little bit longer.
C#                            A      F#
If you don’t want to take the magic away,
     B
Just stay

Stay with me
Ean Ü

"I have to go along with all this reclusive genius stuff... she's going to be very upset when she finds out I'm a reclusive wanker."
User avatar
Ean
Moderator
 
Posts: 4040
Joined: 10th Feb 06, 14:44
Location: Just next to my confuser

Postby wildsam6o » 21st Apr 08, 23:19

Ean, ive said it once, ill say it again!

you absolute star!

thank you!!!!
wildsam6o
 
Posts: 463
Joined: 5th Feb 08, 18:14
Location: Southend on sea

Postby Ean » 21st Apr 08, 23:24

Actually, while we're on this one, there are two chords that go over the second set of four repeats in the intro: the slightly discordant ones. I'm buggered if I can get them exactly, any ideas anyone? :?
Ean Ü

"I have to go along with all this reclusive genius stuff... she's going to be very upset when she finds out I'm a reclusive wanker."
User avatar
Ean
Moderator
 
Posts: 4040
Joined: 10th Feb 06, 14:44
Location: Just next to my confuser

Postby spoon_of_grimbo » 22nd Apr 08, 00:54

i'd have a go at working it out (for some reason, i'm usually pretty good at working out anything discordant/fucked-sounding), but my guitar is currently about a hundred miles away with my brother (who's kindly making a case for it, as D.T. coursework!).
IF THERE'S A SOUND YOU PLAY THAT DOESN'T FIT TODAY,
WHY NOT JUST PLAY THE BASTARD ANYWAY?!
Image
spoon_of_grimbo
 
Posts: 1152
Joined: 19th Aug 07, 12:56
Location: Boston, UK (Home) / Coventry, UK (Uni)

Postby Alteredcarbon » 25th Apr 08, 22:13

wildsam6o wrote:dont suppose you got any of the tabs from the new album

specially, the sweetest song or bi-polar???

love to knock those out sometime

Took me a while to get around to it but revision finally become duller than writing the tab out. Apologies for lack of lyrics/chord names. Everything should be in order but have included the lyrics that coincide with each section in brackets to keep you on track. Just hope it's right :/

Code: Select all
Sweetest Song:
Tuning: Eb
/ = slide
~ = let ring


Main/intro riff:
eb|---------------------------------------------------|
Bb|---------------------------------------------------|
Gb|---------------------------------------------------| x4
Db|----------------------------7-7-7-7-----9-9-9-9----| 
Ab|-4-3-4-3--4-5-4-5-4--5-6-7--5-5-5-5-7-8-7-7-7-7-9--|
Eb|-2-1-2-3--2-3-2-3-4--3-4-5----------5-6---------7--|


Verse riff: (Come sucker fucking away the pain)
eb|----------------------------------------------------------------------------|
Bb|----------------------------------------------------------------------------|
Gb|----------------------------------------------------------------------------|  x2
Db|---------------2-3-4------------------2-3-4-------------------2-3-4---------| 
Ab|-4-2--3/4--3/4-0-1-2--5-4-2--3/4--3/4-0-1-2---5-4-2--3/4--3/4-0-1-2--5-4----|
Eb|-2-0--1/2--1/2--------3-2-0--1/2--1/2---------3-2-0--1/2--1/2--------3-2----|


Chorus riff: ( I heard song/sweetest song/etc...)
eb|--------------------------------|
Bb|--------------------------------|
Gb|--6~~---------------------------|
Db|--------------------------------| 
Ab|--4~~---------------------------|
Eb|--------------------------------|


bouncy riff: (na na na)
eb|----------------------------------------------------------|
Bb|----------------------------------------------------------|
Gb|----------------------------------------------------------| x2
Db|----------------------------4-4--4-4--4-4--4-4--4--4------| 
Ab|--4-4--4-4--4-4--4-4--4--4--2-2--2-2--2-2--2-2--2--2------|
Eb|--2-2--2-2--2-2--2-2--2--2--------------------------------|



Main/intro riff:
eb|---------------------------------------------------|
Bb|---------------------------------------------------|
Gb|---------------------------------------------------| x2
Db|----------------------------7-7-7-7-----9-9-9-9----| 
Ab|-4-3-4-3--4-5-4-5-4--5-6-7--5-5-5-5-7-8-7-7-7-7-9--|
Eb|-2-1-2-3--2-3-2-3-4--3-4-5----------5-6---------7--|


Verse riff: (Just a cunt on the hunt)
eb|----------------------------------------------------------------------------|
Bb|----------------------------------------------------------------------------|
Gb|----------------------------------------------------------------------------|  x2
Db|---------------2-3-4------------------2-3-4-------------------2-3-4---------| 
Ab|-4-2--3/4--3/4-0-1-2--5-4-2--3/4--3/4-0-1-2---5-4-2--3/4--3/4-0-1-2--5-4----|
Eb|-2-0--1/2--1/2--------3-2-0--1/2--1/2---------3-2-0--1/2--1/2--------3-2----|



Verse riff w/ half time feel:
eb|--------------------------------------------------------------------------------------------------|
Bb|--------------------------------------------------------------------------------------------------|
Gb|--------------------------------------------------------------------------------------------------|
Db|---------------------2--3--4--------------------------2--3--4-------------------------------------| 
Ab|-4--2--3--4--2--3--4-0--1--2--5--4--2--3--4--2--3--4--0--1--2--5--4--2--3--4--2--3--4--5--6--7----|
Eb|-2--0--1--2--0--1--2----------3--2--0--1--2--0--1--2-----------3--2--0--1--2--0--1--2--3--4--5----|



chorus riff: ( I heard song/sweetest song/etc...)
eb|-------------------------------------------------------------|
Bb|-------------------------------------------------------------|
Gb|--6--------6---6-----------------------------4--------4---4--| x2
Db|--6--------6---6-------4--------4---4--------4--------4---4--| 
Ab|--4--------4---4-------4--------4---4--------2--------2---2--|
Eb|-----------------------2--------2---2------------------------|


bouncy riffs: (na na na)
eb|----------------------------------------------------------|
Bb|----------------------------------------------------------|
Gb|----------------------------------------------------------|
Db|----------------------------4-4--4-4--4-4--4-4--4--4------| 
Ab|--4-4--4-4--4-4--4-4--4--4--2-2--2-2--2-2--2-2--2--2------|
Eb|--2-2--2-2--2-2--2-2--2--2--------------------------------|


eb|---------------------------------------------------------|
Bb|---------------------------------------------------------|
Gb|---------------------------------------------------------|
Db|----------------------------4-4--4-4--4-4--4-4--4-2------| 
Ab|--4-4--4-4--4-4--4-4--4--4--2-2--2-2--2-2--2-2--2-0------|
Eb|--2-2--2-2--2-2--2-2--2--2-------------------------------|


eb|---------------------------------------------------------|
Bb|---------------------------------------------------------|
Gb|---------------------------------------------------------|
Db|--7-7--7-7--7-7--7-7--7--7-------------------------------| 
Ab|--5-5--5-5--5-5--5-5--5--5--5-5--5-5--5-5--5--5--5-------|
Eb|----------------------------3-3--3-3--3-3--3--3--3-------|

eb|---------------------------------------------------------|
Bb|---------------------------------------------------------|
Gb|---------------------------------------------------------|
Db|--7-7--7-7--7-7--7-7--7--7-------------------------------| 
Ab|--5-5--5-5--5-5--5-5--5--5--5-5--5-5--5-5--5--5----------|
Eb|----------------------------3-3--3-3--3-3--3--3----------|


eb|---------------------------------------------------------|
Bb|---------------------------------------------------------|
Gb|---------------------------------------------------------| x2
Db|--5-5--5-5--5-5--5-5--5--5-------------------------------| 
Ab|--3-3--3-3--3-3--3-3--3--3--3-3--3-3--3-3--3--3----------|
Eb|----------------------------1-1--1-1--1-1--1--1----------|



bridge riffs: (Headfucking waste of ass)
eb|--------------------------------------|
Bb|--------------------------------------|
Gb|--------------------------------------| x2
Db|--6-6-6-6-6-6-6-6-6-6-6-6-6-6-6-6-----| 
Ab|--4-4-4-4-4-4-4-4-4-4-4-4-4-4-4-4-----|
Eb|--------------------------------------|


bridge riff 2: (sitting pretty in pink)
eb|------------------------------------------------------------------------------|
Bb|------------------------------------------------------------------------------|
Gb|------------------------------------------------------------------------------|
Db|--5/6-6-6-6-6-6-6-5/6-6-6-6-6-6-6-5/6-6-6-6-5/6-6-6-6-5/6-6-6-6-5/6-6-6-6-----| 
Ab|--3/4-4-4-4-4-4-4-3/4-4-4-4-4-4-4-3/4-4-4-4-3/4-4-4-4-3/4-4-4-4-3/4-4-4-4-----|
Eb|------------------------------------------------------------------------------|


Verse riff: (And the boys will dance)
eb|----------------------------------------------------------------------------|
Bb|----------------------------------------------------------------------------|
Gb|----------------------------------------------------------------------------| 
Db|---------------2-3-4------------------2-3-4-------------------2-3-4---------| 
Ab|-4-2--3/4--3/4-0-1-2--5-4-2--3/4--3/4-0-1-2---5-4-2--3/4--3/4-0-1-2--5-4----|
Eb|-2-0--1/2--1/2--------3-2-0--1/2--1/2---------3-2-0--1/2--1/2--------3-2----|


Verse riff w/ half time feel:
eb|--------------------------------------------------------------------------------------------------|
Bb|--------------------------------------------------------------------------------------------------|
Gb|--------------------------------------------------------------------------------------------------|
Db|---------------------2--3--4--------------------------2--3--4--------------------------2--3--4----| 
Ab|-4--2--3--4--2--3--4-0--1--2--5--4--2--3--4--2--3--4--0--1--2--5--4--2--3--4--2--3--4--0--1--2----|
Eb|-2--0--1--2--0--1--2----------3--2--0--1--2--0--1--2-----------3--2--0--1--2--0--1--2-------------|


Verse riff:
eb|-----------------------------------------------------------------------------|
Bb|-----------------------------------------------------------------------------|
Gb|-----------------------------------------------------------------------------| 
Db|---------------2-3-4------------------2-3-4-------------------2-3-4----------| 
Ab|-4-2--3/4--3/4-0-1-2--5-4-2--3/4--3/4-0-1-2---5-4-2--3/4--3/4-0-1-2--5-4-4---|
Eb|-2-0--1/2--1/2--------3-2-0--1/2--1/2---------3-2-0--1/2--1/2--------3-2-2---|


Chorus riff: ( I heard song/sweetest song/etc...)
eb|--------------------------------|
Bb|--------------------------------|
Gb|--6~~---------------------------|
Db|--------------------------------| 
Ab|--4~~---------------------------|
Eb|--------------------------------|


eb|-------------------------------------------------------------|
Bb|-------------------------------------------------------------|
Gb|--6--------6---6-----------------------------4--------4---4--| x2
Db|--6--------6---6-------4--------4---4--------4--------4---4--| 
Ab|--4--------4---4-------4--------4---4--------2--------2---2--|
Eb|-----------------------2--------2---2------------------------|


bouncy riff: (na na na)
eb|----------------------------------------------------------|
Bb|----------------------------------------------------------|
Gb|----------------------------------------------------------| x4
Db|----------------------------4-4--4-4--4-4--4-4--4--4------| 
Ab|--4-4--4-4--4-4--4-4--4--4--2-2--2-2--2-2--2-2--2--2------|
Eb|--2-2--2-2--2-2--2-2--2--2--------------------------------|
Alteredcarbon
 
Posts: 70
Joined: 25th Apr 07, 02:14
Location: Manchester

PreviousNext

Return to Wildhearts Music and General Chat

Who is online

Users browsing this forum: No registered users and 5 guests

cron