Page 10 of 12

Re: Guitar Tabs

PostPosted: 18th Jun 10, 18:53
by vickyp
Dayglo buffalo-tastic, cheers for that :D

Re: Guitar Tabs

PostPosted: 20th Jun 10, 23:11
by Jimmy79
or you could play


-------0---------0--------0--------0------------0-------0--------0--------0----
-----5--5------5--5-----5--5----5--5---------5--5----5--5----5--5----5---5-
---4---------4--------4--------4---------4--6-------6--------5------5---------
-----------------------------------------------------------------------------------
----------------------------------------------------------------------------------
----------------------------------------------------------------------------------

Re: Guitar Tabs

PostPosted: 21st Jun 10, 11:07
by VladDracii
Could do, but I wanted to take that extra bit of treble off the notes so but it onto the thicker strings. Doesn't really matter thou.

Re: Guitar Tabs

PostPosted: 9th Aug 10, 16:08
by VladDracii
Most underrated song they've ever done. A personal favorite.

...If anyone's interested...
Code: Select all
Crying over nothing

**b/r is bend/release, as in back to the original note.

(Pick slides after the bass)

Fig. 1

(Second guitar playing around the E5th on 7th frett)

-----------------------------------------------------------------
-----------------------------------------------------------------
-----------------------------------------------------------------
-----------------------------------------------------------------
-2---------------------------------------------------------------
-0--0-0---3(bend half and pull off to open)---3h4----0---0---3h4-






Fig. 2         (Palm mute)
-----------------|-----------------------
-----------------|-----------------------
-9----9--9--9----|-----------------------
-9----9--8--7----|-----------------------
-7----7--7--7----|--2--22-----222--------
-----------------|--0--00-----000--------

(On the final round, you'll hear the following)
------------------------
------------------------
-16---16-----16-15-14---
------------------------
-14---14-----14-13-12---
------------------------





Verse- "You, with the sadness..."

E, D, C (GGG), D (AAA)

End of verse- "Down, down..."

A, B

(This could so easily be played on the lower strings, around the G. I'm fairly certain the quieter guitar is doing it anyway)

---------------------------------------------------------------
---7----6----5----2-------0---0h1------------------------------
-5----4----3------------2---2----------------------------------
---------------------------------------------------------------
---------------------------------------------------------------







Pre-Chorus- "You can't stop crying over..."

B, A, D, A

--------------------------------------------------------------------
--------------------------------------------------------------------
--------------------------------------------------------------------
--------------------------------------------------5--4---2h4--------
-0--0-0---3(bend half and pull of to open)---3h4-------------3h4----

B, A, G (twice as long)









Chorus- "It's alright, so why care..."

(As with all parts like this, I will never tab the single notes being plucked from the barre chord. Seems a bit pointless, very straight forward anyway)

D, A, B, E
G, D

------------------------------------------------------------------------
------------------------------------------------------------------------
------------------------------------------------------------------------
-------------------7-----5------------------------------7--5------------
-0--0-0--3p0-----------------5---4-----0--0-0-3p0-------------5h6h7-----
-------------5p0----------------------------------5p0-------------------

(Palm muted)
-----------------------------------------------------
-----------------------------------------------------
-----------------------------------------------------
-----------------------------------------------------
-----------------------5---4----2h4------------------
-0---0-0---3p0----0-----------------3----------------







Interlude
-------|---------------------------------------------
-------|---------------------------------------------
-------|---------------------------------------------
-2---3-|--4---xx----4---xx---4--x--4-4---------------
-2---3-|--4---xx----4---xx---4--x--4-4---------------
-0---1-|--2---xx----2---xx---2--x--2-2---------------

----------------------------------------------------------
----------------------------------------------------------
----------------------------------------------------------
----------------5h6---------------------------------------
---5h7------5h7-----7--------5h7--7-------5h7-5-----------
-0------5h7----------------0----------5h7-----------------


-------------------------------------------------------------------|----------------
-------------------------------------------------------------------|----------------
-------------------------------------------------------------------|----------------
----------------5h6---------------------------5(bending gradually)-|----------------
---5h7------5h7-----7--------5h7--7-------5h7----------------------|--7-------------
-0------5h7----------------0----------5h7--------------------------|----------------

(Third time, same as the first)

Solo i
-----------------------------------------------------------------------------------
------------------------------------------------------------------10b--8-----------
-9---7-----9---7-----9---7--7b-7----------9-7-9-----9-7-9---7----------------------
---9---------9---------9-----------------------------------------------------------
-----------------------------------------------------------------------------------
-----------------------------------------------------------------------------------

-----------------------------------------------------------------------------------
------15--------------------------15----15b/r--------------------------------------
-14b------14b/r--12-----------14b---------------14b/r-----12------14b/r-(hold)-----
-----------------------------------------------------------------------------------
-----------------------------------------------------------------------------------
-----------------------------------------------------------------------------------







(Chorus again, end on A)


Climax- "Cying over nothing.."

E, A, D

-------------------------------------------------------------------
-xx--12--xx--12--xx--12--xx--12--xx--12--xx--12--xx--14--xx--12----
-xx--12--xx--12--xx--12--xx--12--xx--12--xx--12--xx--14--xx--12----
-xx--12--xx--12--xx--12--xx--12--xx--12--xx--12--xx--14--xx--12----
-------------------------------------------------------------------
-------------------------------------------------------------------





Re: Guitar Tabs

PostPosted: 2nd Sep 10, 15:43
by Kebabyuchenko
Ean, you are a genius and now you are my hero. I love better than cable! Thanks a load dude!

Kebabyuchenko xxx 8-)

Re: Guitar Tabs

PostPosted: 18th Sep 10, 18:59
by Lord Iffy Boatrace
could i respectfully request a tab for slaughtered authors :)

Re: Guitar Tabs

PostPosted: 20th Sep 10, 00:02
by VladDracii
Tomorrow evening I'll sort it out for you.

Re: Guitar Tabs

PostPosted: 22nd Sep 10, 10:03
by Lord Iffy Boatrace
thanks vlad :)

Re: Guitar Tabs

PostPosted: 4th Oct 10, 23:44
by VladDracii
I'm so sorry, I can assure you I haven't forgotten about you. I have the thing worked out but this past week has been awful, and I'm struggling to get it typed up. Sorry about the delay.

Re: Guitar Tabs

PostPosted: 5th Oct 10, 21:40
by Lord Iffy Boatrace
its cool mate, please dont worry, theres no rush :)

Re: Guitar Tabs

PostPosted: 6th Oct 10, 03:00
by VladDracii
Okay, it's actually for the best that I DO keep busy, so anything else you want, please lemme know.

Re: Guitar Tabs

PostPosted: 8th Oct 10, 16:34
by Lord Iffy Boatrace
well if you wanna keep busy, what about rooting for the bad guy as well :) hehe

Re: Guitar Tabs

PostPosted: 8th Oct 10, 22:29
by benwalton
inner city overture anyone?

Re: Guitar Tabs

PostPosted: 9th Oct 10, 19:37
by VladDracii
I'll do all three this evening, i got nowt to do. sit tight.

Re: Guitar Tabs

PostPosted: 4th Dec 10, 20:22
by Velvet Presley
Hello!

Long time no see.

Has anyone got a handle on Dreaming In A?

Many thanks.