Page 9 of 11

PostPosted: 23rd Nov 09, 06:53
by VladDracii
But yeah, this thread is pretty fucking awsome

Re: Chutzpah tabs

PostPosted: 10th Jan 10, 15:58
by Sarc
Righto just had a shifty at this thread and noticed the tabs have all gone a bit pear shaped so when I get back to Blighty next week I'll resort the tabs and put up the remaining ones from Jr and the bastard of all bastards the Chutzpah tab its self.

Re: Chutzpah tabs

PostPosted: 11th Jan 10, 17:47
by godofhaircare
I have nothing to add to this discussion i just wanted to post something on the new funky board

WHEEEEEEEEEEEEE!!!!!!!!

Re: Chutzpah tabs

PostPosted: 15th Jan 10, 17:48
by wildsam6o
hows the tabs from "Jnr" comming along?

I bet there a rite bitch to play

kudos on tabbing the others tho Sarc :D 8-)

Re: Chutzpah tabs

PostPosted: 15th Jan 10, 18:00
by Sarc
I'm still on holiday until Tuesday the 19th you impatiant sod gimme chance.

Re: Chutzpah tabs

PostPosted: 15th Jan 10, 18:08
by Pudu
Sarc wrote:I'm still on holiday until Tuesday the 19th you impatiant sod gimme chance.


Think you will find thats actually impatiEnt pedant!! :bounce: :bounce:

Re: Chutzpah tabs

PostPosted: 15th Jan 10, 18:28
by Sarc
Cock off nob jockey.

Re: Chutzpah tabs

PostPosted: 15th Jan 10, 18:39
by wildsam6o
haha ok dude, didnt realise

Re: Guitar Tabs

PostPosted: 14th Feb 10, 18:10
by VladDracii
Since this has been sticky, I've seen no requests, so leafed back through and someone wanted be my drug?

What a nice way to spend a Sunday afternoon :)

Code: Select all
Be My Drug (But of course, in Eb's)

------------------------------------------------------------------------
------------------------------------------------------------------------
-2--4------------------------------7-6---4--2--4(slide out)-------------
-----------2--11--------7-7-9-7-----------------------------------------
-0--0------------------------------0-0---0--0--0-----------------------------
-----------0--0---------0-0-0-0------------------------------------------

-0(arpeggio up, from here)----0--0-0-0--0---0---0---0---------
-0----------------------------3--3-3-3--3---2---2---2---------
-0----------------------------0--0-0-0--0---0---0---0---------
-2----------------------------2--2-2-2--2---2---2---2---------
-2----------------------------2--2-2-2--2---2---2---2---------
-0----------------------------0--0-0-0--0---0---0---0---------

'Hold me' part, listen for timing, though I'll try my best
-0-2-------0-2---------2-0--2-0----2-0--2-2------2-------------------
-3-3-------3-3---------3-3--3-3----3-3--3-3------3-----2-------------
-2-2-------2-2---------2-2--2-2----2-2--2-2------2-----2-------------
-0-0-------0-0---------0-0--0-0----0-0--0-0------------2-------------
---------------------------------------------------------------------
---------------------------------------------------------------------

Tighter than you...
-0(pick variously)--------------
-0-----------------------3------
-0-----------------------2------
-2-----------------------0------
-2------------------------------
-0------------------------------

Heavy part, strum downwards at same speed X amount of times, to get timing right

A5th x 5
C5th x 4
E5th x 4
A5th x 4
F5th x 4
C5th x 4
G5th x 4
Bb5th x 3

...twice through, then
---------------------------------
---------------------------------
-3-3-3---2-2----3-3-3----2-------
-2-2-2---2-2----2-2-2----2-------
-1-1-1---0-0----1-1-1----0-------
---------------------------------

-Now, just chords

A                 Em            D      Cadd9
Time bubbling under, I will rise, I will shake

      A             Em         D      Cadd9
Material gain in a new lifetime to be rid of the right

      F          Eb
When I can only sing true nature of things

    C          Bb        G#5   G5   F#5   G5    G#5
And I'll rearrange and I'll stand... tall  as    Cen - tre - point

(Dimished Bb5th chord from early is what you'll be needing here) x 14

-Carry on as normal untill the 'hold me' part, same as the intro, then one guitar goes

(Em)
--------------------------------------------------------------
--------------------------------------------------------------
-9-9-9-9-9---9-------10-10-10------12-----12-12-12-----9-9----
--------------------------------------------------------------
-7-7-7-7-7---7(slide)9--9--9(slide)10-----10-10-10-----7-7----
-------------------------------------------------------------- x 2

-2nd 'hold me- tighter than' is a variation on the Amaj, instead of the Dmaj, as in the intro. Other than that, it's the same.

-Final verse, as the others but repeat the section with the F, the Eb, etc

And to finish...

A5      E5      G#5   B5   D
Jus   -   tice,       be   my   drug...

Re: Guitar Tabs

PostPosted: 14th Feb 10, 18:35
by Ean
Does the guitar break in the middle not go:

Code: Select all
  E
e--------------------|--------------------|
B--------------------|--------------------|
G-9---9-9-9-11-11-11-|-----------12-12-12-|
D--------------------|---9-9-9------------|
A-7---7-7-7-9--9--9--|-----------10-10-10-|
E--------------------|---7-7-7------------|

e--------------------|--------------------|
B--------------------|--------------------|
G-9---9-9-9-11-11-11-|-----------12-------|
D--------------------|---9-9-9------------|
A-7---7-7-7-9--9--9--|-----------10-------|
E--------------------|---7-7-7------------|

Re: Guitar Tabs

PostPosted: 14th Feb 10, 21:05
by VladDracii
Yeah....s'pose.... I can hear both really...

I also toyed with the idea of dropping the E to D.... as the shift from F to the higher Eb chord seemed a bit inconsistant.

Fuck it, it's close enough

Re: Guitar Tabs

PostPosted: 2nd Apr 10, 21:08
by mohawkchef
ok i love the wild hearts and i really wanna find the tab to 29x the pain just the intro rift any one know where i can find the intro
thanks loads
mohawkchef :o

Re: Guitar Tabs

PostPosted: 2nd Apr 10, 23:14
by Ean
mohawkchef wrote:ok i love the wild hearts and i really wanna find the tab to 29x the pain just the intro rift any one know where i can find the intro
thanks loads
mohawkchef :o

Well there's two versions at the top of page 6 you could try... ;)

Re: Guitar Tabs

PostPosted: 3rd Apr 10, 17:09
by mohawkchef
i am blind!!! thanks ean!!! nice one dude!!!! :bounce:

Re: Guitar Tabs

PostPosted: 18th Jun 10, 14:40
by VladDracii
Listen, this might not be much use to people, as there isn't the outro, but I finished this an age ago, never got around to putting it up. Not 100%, but pretty close I think.

A quick note, I didn't spend an age worrying about guitar 1 and 2 and which channels were which, they're just both guitars used.

As always, my tabs read more like notes than professional tabliture.

Oh, and with all tabs, might come out better to copy and paste into a notepad file.
Code: Select all
Dangerlust



Guitar 1
---0------0------0------0--------0-------0-------0------0----
-------------------------------------------------------------
--9-9----9-9----9-9----9-9------9-9-----9-9-----9-9----9-9---
-9------9------9------9-------11------11------10-----10------
-------------------------------------------------------------
-------------------------------------------------------------

Guitar 2
---7-----7-----7----7----
--7-7---7-7---7-7----7---
-9-----9-----9-----9-----
-------------------------
-------------------------
-------------------------

Guitar 1-   E5(higher on 7th fret) D5
      A5, G5
      C5, G5
      B5, A5

Riff in first part of verse

Guitar 1
-----------------------
-----------------------
-----------------------
---5-----5h7p5---------
-----7------------5-6--
-0--------------7------

Guitar 2 (with wah)
-7~---7~--(slide out)--
-8~---8~---------------
-----------------------
-----------------------
-----------------------
-----------------------

Chords-   'Best part of my life' A, D
Chords- 'I'm cold, make me hot' G, D, A

Slight interlude

Guitar 1
--------------------------------------------------------------------------------------
--------------------------------------------------------------------------------------
--------------------------------------------------------------------------------------
----------------------------------------------4---------------------------------------
----5--7(slide out)----5--7s------5--7s------5-5------5--7s-----5--7s----5--7-5-7s----
-0-------------------0----------0----------0--------0---------0---------0-------------

Guitar 1
----------------------
----------------------
----------------------
---5-----5h7--------
-----7----------------
-0-------------------- etc

Following parts, mute all strings within the time, and following section is just the E5

Chorus

C          G  D
Honey turn the TV down
   C         G       D
I get a line on their saying and pass it around
      C      G      D
If it works for you, it'll work for us, so
Bb      C     G
Gimmee a little dangerlust
Bb      C     D      (D, D#)
Gimmee a little dangerlust

Build up

Guitar 1(Palm muted)
------------------------------------------
------------------------------------------
------------------------------------------
------------------------------------------
-2-2-2---2-2-2---2-2-2---2-2-2------------
-0-0-0---0-0-0---0-0-0---0-0-0------------

Guitar 2 (Played after every triplet from above)
----------------------------------------------
----------------------------------------------
--9-9-9---9-9-9---9-9-9---9-9-9---------------
--9-9-9---9-9-9---9-9-9---9-9-9---------------
--7-7-7---7-7-7---7-7-7---7-7-7---------------
----------------------------------------------

(Use above section as a refrain)

Guitar 1
----------------------------------------------
----------------------------------------------
-9-----10-----14-------16---------------------
----------------------------------------------
-7-----9------12-------14---------------------
----------------------------------------------

Guitar 2- Chords, E5, D5, A5, G5

Guitar 1
----------------------------------------------
----------------------------------------------
-9---8---------9--7--6--4---------------------
----------------------------------------------
-7---6---------7--5--4--5---------------------
----------------------------------------------

Guitar 2- Chords, E5, B5, E5, D5, C#5, D5

Guitar 1
----------------------------------------------
----------------------------------------------
-9-----10-----12-----14--(14)-----16----17----
----------------------------------------------
-7-----9------10-----12--(12)-----14----15----
----------------------------------------------

Guitar 2- Chords, E5, D5, G5, A5 (A5), B5, C5

Breakdown part 1

Guitar 1 i               ii
----------------------------------------------|---------------------------------------------------
-------------------------------x--------------|---------------------------------------------------
-9--------------------------7--x---7----------|----------x--7----------x-7------------x-7---------
-9--------------------------7--x---5----------|-------7--x--5--------7-x-5----------7-x-5---------
-7-(slide out)-5x5----------5--x--------------|--7~---5--x------10~--5-x-----12~----5-x------7~---
----------------------------------------------|---------------------------------------------------

Guitar 2
----------------------------------------------
--8---8----8-8----7---------------------------
--7---7----7-7----7---------------------------
----------------------------------------------
----------------------------------------------
----------------------------------------------

Now, just the E5 again, and slides and interesting noises I can't seem to work out on an acoustic guitar...


D      C   G     F
Dayglo buffaloes blew me away
Bb        F             A       G
Stranger the eye was tween the dust and the day
D     C      G       F
Mile high sweet as pie show me a sign
Bb       F         A          G
Im smiling away cuz I know that its mine

Chorus again