Guitar Tabs

Albums, singles, songs and general Wildhearts banter

Postby Ean » 4th Sep 09, 18:21

How do you mean merging together?
Ean Ü

"I have to go along with all this reclusive genius stuff... she's going to be very upset when she finds out I'm a reclusive wanker."
User avatar
Ean
Moderator
 
Posts: 4040
Joined: 10th Feb 06, 14:44
Location: Just next to my confuser

Postby melx » 4th Sep 09, 18:28

man...am I the only guitarist who can't make head or tale of tab?

i'm more of a 'tell me the chords and I'll play it' kinda guy!
melx
 
Posts: 445
Joined: 8th Jul 09, 16:19
Location: Resident of the United Kingdom

Postby Sarc » 4th Sep 09, 18:34

melx wrote:man...am I the only guitarist who can't make head or tale of tab?

i'm more of a 'tell me the chords and I'll play it' kinda guy!


six lines = six strings
the numbers = the fret where you stick your fingers

/ slide up
\slide down
^^^^^^^^^^^^^ shake it all around.
Not sent from my fucking iphone.

The Wicked Mod of the South.

Go here you might like it.
http://z6.invisionfree.com/Eureka_Machines/index.php
User avatar
Sarc
 
Posts: 2822
Joined: 25th Apr 07, 21:27
Location: Brighton

Postby melx » 4th Sep 09, 19:15

Sarc wrote:
melx wrote:man...am I the only guitarist who can't make head or tale of tab?

i'm more of a 'tell me the chords and I'll play it' kinda guy!


six lines = six strings
the numbers = the fret where you stick your fingers

/ slide up
\slide down
^^^^^^^^^^^^^ shake it all around.


yeah, I've been told that many times. :lol:

so in the chorus to 'the only one'

Eb-2-------------------------4-------------|
Bb-2---------2---------------4-------------|
F--0---------2---------------2-------------|
C------------0-----------------------------|

the second chord is 'E minor'? (if it was in standard tuning). ...or do you not play the minor on the Eb string??

Eb-7---------------------------------------|
Bb-7-------------------2-------------------|
F--5-------------------2-------------------|
C----------------------0-------------------|

ok, i'm getting this, so the first one there is a 2 finger power chord...where 'B' would be in standard tuning.

F--4-4-4---|------------------7-----------|
C--2-2-2---|------------------5-----------|

and this...... just two strings played????

...ok, I need to play through with the songs, I'm kinda seeing it now.... I was looking at it upside down before!!
melx
 
Posts: 445
Joined: 8th Jul 09, 16:19
Location: Resident of the United Kingdom

Postby Sarc » 5th Sep 09, 14:16

This was a bitch to do so the riff before the verse and the last part of the chorus is probably completely wrong.

Code: Select all
Tim Smith

E = C
A = F
D = Bb
G = Eb
B = G
e = C

Guitar 1                   Guitar 2
C------------------------|-----10(b)12---10(b)12----
G------------------------|--------------------------
Eb-----------------------|--------------------------
Bb-3-3-3-2------3-3-3-2--|--------------------------
F--3-3-3-2------3-3-3-2--|--------------------------
C--1-1-1-0------1-1-1-0--|--------------------------

Guitar 1
C--0-0-0-0-0-0-0-0-0-0-0-|-0-0-0-0-0-0-0-0-0-0-0-0--

Guitar 2
Eb--------4/5----3/4-----|-10--10--10--10/11--------
Bb--------4/5----3/4-----|-10--10--10--10/11--------
F---------2/3----1/2-----|-8---8---8---8-/9---------

Guitar 1
Bb-2-2-2-2-2-2-2-2-2-2-2-|-2-2-2-2-2-2-2-2-2-2-2-2--
F--2-2-2-2-2-2-2-2-2-2-2-|-2-2-2-2-2-2-2-2-2-2-2-2--
C--0-0-0-0-0-0-0-0-0-0-0-|-0-0-0-0-0-0-0-0-0-0-0-0--

Guitar 2
Eb--------4/5----3/4-----|-10--10--10--10/11--------
Bb--------4/5----3/4-----|-10--10--10--10/11--------
F---------2/3----1/2-----|-8---8---8---8-/9---------

Guitar 1
C--0-0-0-0-0-0-0-0-0-0-0-|-0-0-0-0-0-0-0-0-0-0-0-0--

Guitar 2 (not 100 percent you try and do better)
Bb--8-7-5----8-7-8-7-5---|-8-7-8-7-8-7-5----8-7-5---
F---------7------------7-|---------------7-------7--

Guitar 1                   Guitar 2
C------------------------|--------------------------
G------------------------|--------------------------
Eb-----------------------|--------------------------
Bb-3-3-3-2------3-3-3-2--|-----2(b)3-2(3)-----------
F--3-3-3-2------3-3-3-2--|--------------------------
C--1-1-1-0------1-1-1-0--|--------------------------

Guitar 1           Guitar 2
Eb----------------|--9------------------------
Bb-2--------------|--9-8----------------------
F--2--------------|--7-7----------------------
C--0--------------|---------------------------
Can a man make a difference? Could our God have a preference?

Guitar 1            Guitar 2
Eb----------------|--9------------------------
Bb-2----------4---|--9-8----------------------
F--2----------4---|--7-7----------------------
C--0----------2---|---------------------------
When tomorrow needs a legacy Where will the unit shifters be?

Bb-6-----7------7-|--------------------------
F--6-----7------7-|--------------------------
C--4-----5------5-|--------------------------
When the future needs a soundtrack Not a name on a contract

Eb-4-----5--------|------------5--------------
Bb-4-----5--------|------------5--------------
F--2-----3--------|------------3--------------
Only justice and quality Not a face on a TV

Guitar 1            Guitar 2
Eb-7-----5--------|--7--/9-----5---/9---------
Bb-7-----5--------|--7---------5--------------
F--5-----3--------|--5--/7-----3---/7---------
When melody and words are free

Eb-7-----5--------|--7--/9-----5--------------
Bb-7-----5--------|--7---------5--------------
F--5-----3--------|--5--/7-----3--------------
And consumers are singing in harmony

Bb-5-----3--------|--5--/7-----3---/7---------
F--5-----3--------|--5---------3--------------
C--3-----1--------|--3--/5-----1---/5---------
They will bow to the ground Of the glitterest sound

Bb-5-----3--------|--5--/7-----3--------------
F--5-----3--------|--5---------3--------------
C--3-----1--------|--3--/5-----1--------------
And the bells will ring As the populace sing

Eb--8-------------|---8-----------------------
Bb--8----5--------|---8-----5-----------------
F---6----5--------|---6-----5-----------------
C--------3--------|---------3-----------------
Hallelujah, Hallelujah, Hallelujah

(Both Guitars)
C----3------------|---------------------------
G----3------------|----------3----------------
Eb---0------------|----------4----------------
Bb---0------------|----------4----------------
F----2------------|----------2----------------
C----3------------|---------------------------
All praise that the greatest man who ever walked

C---0-----------0-|---------------------------
G---5-----------3-|--3------------------------
Eb--4-----------2-|--0------------------------
Bb--2-----------0-|--2------------------------
F-----------------|--3------------------------
C-----------------|---------------------------
on the earth Is still around

Eb----------------|--9------------------------
Bb-2--------------|--9-8----------------------
F--2--------------|--7-7----------------------
C--0--------------|---------------------------
When a need is not satisfied Mediocrity is utilised

Eb----------------|--9------------------------
Bb-2--------------|--9-8----------------------
F--2--------------|--7-7----------------------
C--0--------------|---------------------------
But the need does not disappear It only hibernates another year

Bb-6-----7------7-|--------------------------
F--6-----7------7-|--------------------------
C--4-----5------5-|--------------------------
When the people call out for a change No corporation holds the reins

Eb-4-----5--------|------------5--------------
Bb-4-----5--------|------------5--------------
F--2-----3--------|------------3--------------
When the people demand to feel They will take hold of the wheel.

Guitar 1            Guitar 2
Eb-7-----5--------|--7--/9-----5---/9---------
Bb-7-----5--------|--7---------5--------------
F--5-----3--------|--5--/7-----3---/7---------
When melody and words are free

Eb-7-----5--------|--7--/9-----5--------------
Bb-7-----5--------|--7---------5--------------
F--5-----3--------|--5--/7-----3--------------
And consumers are singing in harmony

Bb-5-----3--------|--5--/7-----3---/7---------
F--5-----3--------|--5---------3--------------
C--3-----1--------|--3--/5-----1---/5---------
They will bow to the ground Of the glitterest sound

Bb-5-----3--------|--5--/7-----3--------------
F--5-----3--------|--5---------3--------------
C--3-----1--------|--3--/5-----1--------------
And the bells will ring As the populace sing

Eb--8-------------|---8-----------------------
Bb--8----5--------|---8-----5-----------------
F---6----5--------|---6-----5-----------------
C--------3--------|---------3-----------------
Hallelujah, Hallelujah, Hallelujah

(Both Guitars)
C----3------------|---------------------------
G----3------------|----------3----------------
Eb---0------------|----------4----------------
Bb---0------------|----------4----------------
F----2------------|----------2----------------
C----3------------|---------------------------
All praise that the greatest man who ever walked

C---0-----------0-|---------------------------
G---5-----------3-|--3------------------------
Eb--4-----------2-|--0------------------------
Bb--2-----------0-|--2------------------------
F-----------------|--3------------------------
C-----------------|---------------------------
on the earth Is still around

Guitar 1
Bb-2-2-2-2-2-2-2-2-2-2-2-|-2-2-2-2-2-2-2-2-2-2-2-2--
F--2-2-2-2-2-2-2-2-2-2-2-|-2-2-2-2-2-2-2-2-2-2-2-2--
C--0-0-0-0-0-0-0-0-0-0-0-|-0-0-0-0-0-0-0-0-0-0-0-0--

Guitar 2
Eb--------4/5----3/4-----|-10--10--10--10/11--------
Bb--------4/5----3/4-----|-10--10--10--10/11--------
F---------2/3----1/2-----|-8---8---8---8-/9---------

Guitar 1
C--0-0-0-0-0-0-0-0-0-0-0-|-0-0-0-0-0-0-0-0-0-0-0-0--

Guitar 2 (not 100 percent you try and do better)
Bb--8-7-5----8-7-8-7-5---|-8-7-8-7-8-7-5----8-7-5---
F---------7------------7-|---------------7-------7--

C------------------------|--------------------------
G------------------------|--------------------------
Eb-----------------------|--------------------------
Bb-3-3-3-2------3-3-3-2--|--3-3-3-------------------
F--3-3-3-2------3-3-3-2--|--3-3-3-------------------
C--1-1-1-0------1-1-1-0--|--1-1-1-------------------
Not sent from my fucking iphone.

The Wicked Mod of the South.

Go here you might like it.
http://z6.invisionfree.com/Eureka_Machines/index.php
User avatar
Sarc
 
Posts: 2822
Joined: 25th Apr 07, 21:27
Location: Brighton

Postby nig1012 » 5th Sep 09, 15:04

Ean wrote:How do you mean merging together?


sorry prob wrong word, i mean is it possible to get the tabs in 1 line on a bigger page maybe rather than the tab continuing under the previous line thus getting 12 lines instead of 6

i think somone has mentioned it before :?

i'm not having a dig sarcy boy i think u've done/doing an amazing job. keep it up :D
is your silence making you lonely?
or is your lonliness making you silent?
nig1012
 
Posts: 994
Joined: 30th Mar 06, 18:16
Location: crewe

Postby Sarc » 5th Sep 09, 15:14

Ahh I see what you mean, erm no theres no way of doing it as a line represents a string, so unless you have a twelve string guitar and can play both guitar parts at the same time its not likley to happen.

Justy puttingt the finishing touches to the solo of Low Energy Vortex should be up in the next twenty minute or so.

On a quick side note, the down tuned guitars and the extra layers are making it really hard to do these bloody things, god knows why I started doing them and I know I said I'd hopefully have them up before the end of the Weekend, the title track might not be up for another few days as it's a bitch to do plus I'm hoping that whenever my japanese edition arrives (still packing my arse) I'll be able to sort out the bonus tracks to.
Not sent from my fucking iphone.

The Wicked Mod of the South.

Go here you might like it.
http://z6.invisionfree.com/Eureka_Machines/index.php
User avatar
Sarc
 
Posts: 2822
Joined: 25th Apr 07, 21:27
Location: Brighton

Postby Sarc » 5th Sep 09, 15:29

Code: Select all
Low Energy Vortex

E = C
A = F
D = Bb
G = Eb
B = G
e = C

Guitar 1                  Guitar 2
Eb-----------------------|--6-/9--\7--/12-----------
Bb-7----5----5-----------|--------------------------
F--7----5----5-----------|--4-/7--\5--/10-----------
C--5----3----7-----------|--------------------------

Verse
Guitar 1                   Guitar 2
Eb--------7--------------|----------7---------------
Bb-5------7--------------|--5-------7---------------
F--5------5--------------|--5-------5---------------
C--3---------------------|--3-----------------------
In the centre of the thunder Selfishly I wander
Along the road of evil

Guitar 1                   Guitar 2
Eb--------5--------------|----------5---------------
Bb-3------5--------------|--3-------5---------------
F--3------3--------------|--3-------3---------------
C--1---------------------|--1-----------------------
Through the canyons where Hope can’t find me there

Guitar 1                   Guitar 2
Eb--------7--------------|----------7---------------
Bb-5------7--------------|--5-------7---------------
F--5------5--------------|--5-------5---------------
C--3---------------------|--3-----------------------
And I divorce myself from feeling

Guitar 1                   Guitar 2
Bb------7----------------|-----7-------------------
F-------7----------------|-----7-------------------
C-------5----------------|-----5-------------------
Nothing’s gonna let me down now
Nothing’s gonna let me down now

Guitar 1                   
G----3-------------------|-------------------------
Eb---2-------------------|--2----------------------
Bb---0-------------------|--2----------------------
F------------------------|--0----------------------

Guitar 2                   
G------------------------|-------------------------
Eb---7-------------------|--9----------------------
Bb---7-------------------|--7----------------------
F----5-------------------|--0----------------------
C------------------------|-------------------------
Shallow breathing makes it so hard to fight this

Guitar 1                   Guitar 2
G----------------3-------|--------------------------
Eb--5-----4------2-------|------0-------0-----7-----
Bb--5-----5------0-------|----2---2---0---0---7-----
F---3-----2--------------|--3-------2---------5-----
C------------------------|--------------------------
The calmest storm could blow me away

Guitar 1                   
G----3-------------------|-------------------------
Eb---2-------------------|--2----------------------
Bb---0-------------------|--2----------------------
F------------------------|--0----------------------

Guitar 2                   
Eb---7-------------------|--9----------------------
Bb---7-------------------|--7----------------------
F----5-------------------|--0----------------------
Stop the bleeding before you start a crisis

Guitar 1                    Guitar 2
Eb--5-----4-----3--------|------0-------0-------0---
Bb--5-----5-----3--------|----2---2---0---0---0-----
F---3-----2-----1--------|--3-------2-------1-------
And keep the poison potent as it courses through my veins

Guitar 1                  Guitar 2
Eb-----------------------|--6-/9--\7--/12-----------
Bb-7----5----5-----------|--------------------------
F--7----5----5-----------|--4-/7--\5--/10-----------
C--5----3----7-----------|--------------------------

Guitar 1                   Guitar 2
Eb--------7--------------|----------7---------------
Bb-5------7--------------|--5-------7---------------
F--5------5--------------|--5-------5---------------
C--3---------------------|--3-----------------------
Blackened windows hide the secrets The sickness and the weakness
Locked up with the regrets

Eb--------5--------------|----------5---------------
Bb-3------5--------------|--3-------5---------------
F--3------3--------------|--3-------3---------------
C--1---------------------|--1-----------------------
Stolen eyes deny That the world outside

Guitar 1                   Guitar 2
Eb--------7--------------|----------7---------------
Bb-5------7--------------|--5-------7---------------
F--5------5--------------|--5-------5---------------
C--3---------------------|--3-----------------------
Has an offer that can beat this

Guitar 1                   Guitar 2
Eb-----------------------|-------------------------
Bb------7----------------|-----7-------------------
F-------7----------------|-----7-------------------
C-------5----------------|-----5-------------------
Nothing’s gonna let me down now
Nothing’s gonna let me down now

Guitar 1                   
G----3-------------------|-------------------------
Eb---2-------------------|--2----------------------
Bb---0-------------------|--2----------------------
F------------------------|--0----------------------

Guitar 2                   
G------------------------|-------------------------
Eb---7-------------------|--9----------------------
Bb---7-------------------|--7----------------------
F----5-------------------|--0----------------------
C------------------------|-------------------------
Shallow breathing makes it so hard to fight this

Guitar 1                   Guitar 2
G----------------3-------|--------------------------
Eb--5-----4------2-------|------0-------0-----7-----
Bb--5-----5------0-------|----2---2---0---0---7-----
F---3-----2--------------|--3-------2---------5-----
C------------------------|--------------------------
The calmest storm could blow me away

Guitar 1                   
G----3-------------------|-------------------------
Eb---2-------------------|--2----------------------
Bb---0-------------------|--2----------------------
F------------------------|--0----------------------

Guitar 2                   
Eb---7-------------------|--9----------------------
Bb---7-------------------|--7----------------------
F----5-------------------|--0----------------------
Stop the bleeding before you start a crisis

Guitar 1                    Guitar 2
Eb--5-----4-----3--------|------0-------0-------0---
Bb--5-----5-----3--------|----2---2---0---0---0-----
F---3-----2-----1--------|--3-------2-------1-------
And keep the poison potent as it courses through my veins

Guitar 1                   Guitar 2
Eb--------5--------------|----------5---------------
Bb-3------5--------------|--3-------5---------------
F--3------3--------------|--3-------3---------------
C--1---------------------|--1-----------------------
My veins Yeah

Guitar 1                   
G--3-------------|----------------------|----------------------|--3------------------------|
Eb-2-------------|-2--------------------|------0------0--------|--2------------------------|
Bb-0-------------|-2--------------------|----2---2--0---0------|--0------------------------|
F----------------|-0--------------------|--3-------2-----------|---------------------------|

Guitar 2
C----------------|----------------------|----------------------|---------------------------|
G--7--7/8\7------|-------10(b)12(r)10---|-7-8-787--------------|-8-7-7-8-7---7-------------|
Eb-----------9-7-|--------------------9-|---------9--7---7-----|-----------9---9-7-9-7-----|
Bb---------------|-10-10----------------|-------------------9--|-----------------------9-7-|

Guitar 1                   
G--3-------------|----------------------|----------------------|--3------------------------|
Eb-2-------------|--2-------------------|------0------0--------|--2------------------------|
Bb-0-------------|--2-------------------|----2---2--0---0------|--0------------------------|
F----------------|--0-------------------|--3-------2-----------|---------------------------|

Guitar 2
C----------------|----------------------|----------------------|---------------------------|
G--7--7/8\7------|-------10(b)12(r)10---|-7-8-10/12-12-10-8-10-|-8-7-7-8-7---7-------------|
Eb-----------9-7-|--------------------9-|----------------------|-----------9---9-7-9-7-----|
Bb---------------|-10-10----------------|----------------------|-----------------------9-7-|


Guitar 1                   
G----3-------------------|-------------------------
Eb---2-------------------|--2----------------------
Bb---0-------------------|--2----------------------
F------------------------|--0----------------------

Guitar 2                   
G------------------------|-------------------------
Eb---7-------------------|--9----------------------
Bb---7-------------------|--7----------------------
F----5-------------------|--0----------------------
C------------------------|-------------------------
Shallow breathing makes it so hard to fight this

Guitar 1                   Guitar 2
G----------------3-------|--------------------------
Eb--5-----4------2-------|------0-------0-----7-----
Bb--5-----5------0-------|----2---2---0---0---7-----
F---3-----2--------------|--3-------2---------5-----
C------------------------|--------------------------
The calmest storm could blow me away

Guitar 1                   
G----3-------------------|-------------------------
Eb---2-------------------|--2----------------------
Bb---0-------------------|--2----------------------
F------------------------|--0----------------------

Guitar 2                   
Eb---7-------------------|--9----------------------
Bb---7-------------------|--7----------------------
F----5-------------------|--0----------------------
Stop the bleeding before you start a crisis

Guitar 1                    Guitar 2
Eb--5-----4-----3--------|------0-------0-------0---
Bb--5-----5-----3--------|----2---2---0---0---0-----
F---3-----2-----1--------|--3-------2-------1-------
And keep the poison potent as it courses through my veins

Guitar 1                   Guitar 2
Eb--------5--------------|----------5---------------
Bb-3------5--------------|--3-------5---------------
F--3------3--------------|--3-------3---------------
C--1---------------------|--1-----------------------
My veins Yeah

Guitar 1                  Guitar 2
Eb-----------------------|--6-/9--\7--/12-----------
Bb-7----5----5-----------|--------------------------
F--7----5----5-----------|--4-/7--\5--/10-----------
C--5----3----7-----------|--------------------------
Not sent from my fucking iphone.

The Wicked Mod of the South.

Go here you might like it.
http://z6.invisionfree.com/Eureka_Machines/index.php
User avatar
Sarc
 
Posts: 2822
Joined: 25th Apr 07, 21:27
Location: Brighton

Postby Sarc » 5th Sep 09, 16:10

Code: Select all
You Took The Sunshine Out Of New York

E = C
A = F
D = Bb
G = Eb
B = G
e = C

Eb-3--------------
Bb-3--------------
F--1--------------
Butter coconut as a welcome smell Baby pigeon seed on the window sill

Bb-5--------------
F--5--------------
C--3--------------
Kitchen cupboard full of granola bars Walking through the city beneath the stars

Eb-3--------------
Bb-3--------------
F--1--------------
And loving every dog on the Lower East Side Fighting for the bill in the taxi ride

Bb-5--------------
F--5--------------
C--3--------------
Your pink knickers sit on the living room floor ‘cause no one wants to clear them up no more

Guitar 1      Guitar 2
Eb-3--------|--3-2--0---------------
Bb-3--------|---------3--3--1-0-----
F--1--------|-----------------------

Eb-7------------------------------------8-------
Bb-7------------------------------------8-------
F--5------------------------------------6-------
It rained the day You took that ride to JFK

Eb-3------------------------------------7-------
Bb-3------------------------------------7-------
F--1------------------------------------5-------
And made your way back home again There’s nothing much more lonely than

Bb---------------------------5-----------------
F----------------------------5-----------------
C----------------------------3-----------------
The rain beating down on the fire escape

eb--------------10------------------------------
Bb--------------10------------------------------
F---------------8------------------------------
The grey skies over the United States When you walk

Eb-8-------------------------3------------------
Bb-8-------------------------3------------------
F--6-------------------------1------------------
You took the sunshine from New York
You took the sunshine from New York
You took the sunshine from New York

Eb-8--------------------------------------------
Bb-8--------------------------------------------
F--6--------------------------------------------
You took the sunshine from New York You took the

Guitar 1            Guitar 2
Eb-3--------------|--10-10--x10-10--------------
Bb-3--------------|--8--8---x8--8---------------
F--1--------------|-----------------------------
Tiny little squares of Green & Blacks Watching DVDs of tits and ass

Guitar 1            Guitar 2
Bb-5--------------|--7-7--x7-7------------------
F--5--------------|--5-5--x5-5------------------
C--3--------------|-----------------------------
Long summer days on Rockaway Beach Surprisingly hard and far to reach

Eb-3--------------|--10-10--x10-10--------------
Bb-3--------------|--8--8---x8--8---------------
F--1--------------|-----------------------------
Homies in a box for 50¢ The squirrels kinda wondered where you went

Guitar 1            Guitar 2
Bb-5--------------|--7-7--x7-7------------------
F--5--------------|--5-5--x5-5------------------
C--3--------------|-----------------------------
The bathroom seems a little light on stuff The bed’s unmade and the TV’s off

Eb-7------------------------------------8-------
Bb-7------------------------------------8-------
F--5------------------------------------6-------
It rained the day You took that ride to JFK

Eb-3------------------------------------7-------
Bb-3------------------------------------7-------
F--1------------------------------------5-------
And made your way back home again There’s nothing much more lonely than

Bb---------------------------5------------------
F----------------------------5------------------
C----------------------------3------------------
The rain beating down on the fire escape

eb--------------10---------------------3--------
Bb--------------10---------------------3--------
F---------------8----------------------1--------
The grey skies over the United States When you walk

Eb-8-------------------------3------------------
Bb-8-------------------------3------------------
F--6-------------------------1------------------
You took the sunshine from New York
You took the sunshine from New York
You took the sunshine from New York

Eb-8--------------------------------------------
Bb-8--------------------------------------------
F--6--------------------------------------------
You took the sunshine from New York You took the

Eb-8---------10---------7----10-----------------
Bb-8-----8---10---------7----10-----5-----------
F--6-----8---8----------5----8------5-----------
C--------6--------------------------3-----------
And when you go Things slow back down

Eb-8---------10-----12--10--8--------------------
Bb-8-----8---10-----12--10--8--------------------
F--6-----8---8------10--8---6--------------------
C--------6-------------------------------------
To the crawl That drags me around




Guitar 1      Guitar 2
Eb-3--------|--3-2--0---------------
Bb-3--------|---------3--3--1-0-----
F--1--------|-----------------------

Eb-7------------------------------------8-------
Bb-7------------------------------------8-------
F--5------------------------------------6-------
It rained the day You took that ride to JFK

Eb-3------------------------------------7-------
Bb-3------------------------------------7-------
F--1------------------------------------5-------
And made your way back home again There’s nothing much more lonely than

Bb---------------------------5-----------------
F----------------------------5-----------------
C----------------------------3-----------------
The rain beating down on the fire escape

eb--------------10------------------------------
Bb--------------10------------------------------
F---------------8------------------------------
The grey skies over the United States When you walk

Eb-8-------------------------3------------------
Bb-8-------------------------3------------------
F--6-------------------------1------------------
You took the sunshine from New York
You took the sunshine from New York
You took the sunshine from New York

Eb-8--------------------------------------------
Bb-8--------------------------------------------
F--6--------------------------------------------
You took the sunshine from New York You took the
Not sent from my fucking iphone.

The Wicked Mod of the South.

Go here you might like it.
http://z6.invisionfree.com/Eureka_Machines/index.php
User avatar
Sarc
 
Posts: 2822
Joined: 25th Apr 07, 21:27
Location: Brighton

Postby Sarc » 5th Sep 09, 17:01

Code: Select all
Mazel Tov Cocktail

E = C
A = F
D = Bb
G = Eb
B = G
e = C

Intro
Guitar 2
G----10-9-9--9---9h10--10p9--9--7-7--7--10-10--10-10--
Eb---9--9-9--9---9-----9--9--9--8-8--8--9--9---9--9---
Bb---11-9-9--9---9h11--11p9--9--9-9--9--11-11--11-11--

Guitar 1
F-9-9-9-9-9-9-9-9-9-9-9-9-9--9-9-9-2-2-2-2-2-2-2-0-0-0-0-0-0-0-0-0-

Guitar 2
G----10-9-9--9---9h10--10p9--9--7-7--7--10-10--10-10--
Eb---9--9-9--9---9-----9--9--9--8-8--8--9--9---9--9---
Bb---11-9-9--9---9h11--11p9--9--9-9--9--11-11--11-11
There’s a fever in the cabin There’s a devil in the garden
A shark fin in the brainwaves Stopping anything starting


Guitar 1
Bb--9----------4-------2------
Bb--9----------4-------2------
F---7----------2-------0------

Guitar 2
G----10-9-9--9---9h10--10p9--9--7-7--7--10-10--10-10--
Eb---9--9-9--9---9-----9--9--9--8-8--8--9--9---9--9---
Bb---11-9-9--9---9h11--11p9--9--9-9--9--11-11--11-11--
Grey skies fight and the sun dies shining
Then the telephone rings with a silver lining

Bb--2----9------4-------5------|--2-----9-----4-------
Bb--2----9------4-------5------|--2-----9-----4-------
F---0----7------2-------3------|--0-----7-----2-------
Take me out, take me out tonight
Get me hooked in good and stick the wheels on tight
Take me out, take me out tonight ‘cause when the light has gone
Just a whole lot of shakes going on
Yeah

Guitar 2
G----10-9-9--9---9h10--10p9--9--7-7--7--10-10--10-10--
Eb---9--9-9--9---9-----9--9--9--8-8--8--9--9---9--9---
Bb---11-9-9--9---9h11--11p9--9--9-9--9--11-11--11-11--

Guitar 1
F-9-9-9-9-9-9-9-9-9-9-9-9-9--9-9-9-2-2-2-2-2-2-2-0-0-0-0-0-0-0-0-0-

Guitar 2
G----10-9-9--9---9h10--10p9--9--7-7--7--10-10--10-10--
Eb---9--9-9--9---9-----9--9--9--8-8--8--9--9---9--9---
Bb---11-9-9--9---9h11--11p9--9--9-9--9--11-11--11-11--

Guitar 1
F-9-9-9-9-9-9-9-9-9-9-9-9-9--9-9-9-2-2-2-2-2-2-2-0-0-0-0-0-0-0-0-0-

If I can wait a little longer If I can keep on believing
Just a location and a number Is all the intel I’ll be needing

Bb--2----9------4-------5------|--2-----9-----4-------
Bb--2----9------4-------5------|--2-----9-----4-------
F---0----7------2-------3------|--0-----7-----2-------
Where the lights are bright and the girls are smiling
Where it sounds so good it’ll stop me thinking

Bb--2----9------4-------5------|--2-----9-----4-------
Bb--2----9------4-------5------|--2-----9-----4-------
F---0----7------2-------3------|--0-----7-----2-------
Take me out, take me out tonight
Get me hooked in good and stick the wheels on tight
Take me out, take me out tonight
‘cause when the light has gone

Bb--2-----9-----4----7---
Bb--2-----9-----4----7---
F---0-----7-----2----5---
Just a whole lot of shakes going on

Guitar 1
Bb-7----------|-------------|-9-----------|-9----------------
Bb-7----------|-7-----------|-9-----------|-9----------------
F--5----------|-7-----------|-7-----------|-7----------------
C-------------|-5-----------|-------------|-------------------

Guitar 2
Eb----7-6-4---|---4-6-4-----|---------4-6-|------------------
Bb----------7-|-7-------4-6-|---4-6-7-----|------------------
F--5----------|-------------|-7-----------|------------------
C-------------|-------------|-------------|------------------

Guitar 1
Bb--7---------|-------------|-------------|------------------
Bb--7---------|-7-----------|-9-----------|-9----------------
F---5---------|-7-----------|-9-----------|-9----------------
C-------------|-5-----------|-7-----------|-7----------------

Guitar 2
G-------------|-------------|-------------|---2(b)4(r)2-0----
Eb----7-6-4---|---4-6-4-----|-------------|------------------
Bb----------7-|-7-----------|-------2-----|-2----------------
F--5----------|-------------|--2-4--------|------------------
C-------------|-------------|-------------|------------------

Grey skies fight and the sun dies shining
Then the telephone rings with a silver lining

Eb-------4------2-------2------|
Bb--2----4------2-------2------|
F---2----2------0-------0------|
C---0--------------------------|
Where the lights are bright and the girls are smiling
Where it sounds so good it’ll stop me thinking

Just a whole lot of shakes going on
Just a whole lot of shakes going on
Just a whole lot of shakes going on
Just a whole lot of shakes going on
Not sent from my fucking iphone.

The Wicked Mod of the South.

Go here you might like it.
http://z6.invisionfree.com/Eureka_Machines/index.php
User avatar
Sarc
 
Posts: 2822
Joined: 25th Apr 07, 21:27
Location: Brighton

Postby Sarc » 5th Sep 09, 17:01

SOd it you lot can wait for Chutzpah, I'll finish that off when I've done the bonus tracks, you may be waiting a while
Not sent from my fucking iphone.

The Wicked Mod of the South.

Go here you might like it.
http://z6.invisionfree.com/Eureka_Machines/index.php
User avatar
Sarc
 
Posts: 2822
Joined: 25th Apr 07, 21:27
Location: Brighton

Postby Ean » 6th Sep 09, 23:33

nig1012 wrote:
Ean wrote:How do you mean merging together?


sorry prob wrong word, i mean is it possible to get the tabs in 1 line on a bigger page maybe rather than the tab continuing under the previous line thus getting 12 lines instead of 6

i think somone has mentioned it before :?

i'm not having a dig sarcy boy i think u've done/doing an amazing job. keep it up :D

Yes.

Cut'n'paste them into notepad then make them fullscreen. The wordwrap is an effect of the board formatting rather than a problem with the tabs - although none of them wrap for me anyway?
Ean Ü

"I have to go along with all this reclusive genius stuff... she's going to be very upset when she finds out I'm a reclusive wanker."
User avatar
Ean
Moderator
 
Posts: 4040
Joined: 10th Feb 06, 14:44
Location: Just next to my confuser

Postby nig1012 » 7th Sep 09, 20:02

Ean wrote:
nig1012 wrote:
Ean wrote:How do you mean merging together?


sorry prob wrong word, i mean is it possible to get the tabs in 1 line on a bigger page maybe rather than the tab continuing under the previous line thus getting 12 lines instead of 6

i think somone has mentioned it before :?

i'm not having a dig sarcy boy i think u've done/doing an amazing job. keep it up :D

Yes.

Cut'n'paste them into notepad then make them fullscreen. The wordwrap is an effect of the board formatting rather than a problem with the tabs - although none of them wrap for me anyway?


:lol: nice one dude :lol:
is your silence making you lonely?
or is your lonliness making you silent?
nig1012
 
Posts: 994
Joined: 30th Mar 06, 18:16
Location: crewe

Postby Sarc » 8th Sep 09, 17:59

Code: Select all
Zeen Requiem

E = C
A = F
D = Bb
G = Eb
B = G
e = C

Eb---7-------------------------4-------------------------------
Bb---7-------------------------4-------------------------------
F----5-------------------------2-------------------------------
And when you talked about your suicide

Eb---------------7---------------------------------------------
Bb---5-----------7-------------7-------------------------------
F----5-----------5-------------7-------------------------------
C----3-------------------------5-------------------------------
I never took it serious at all

Eb---7-------------------------4-------------------------------
Bb---7-------------------------4-------------------------------
F----5-------------------------2-------------------------------
Out of sight but never out of mind

Eb---------------7---------------------------------------------
Bb---5-----------7-------------7-------------------------------
F----5-----------5-------------7-------------------------------
C----3-------------------------5-------------------------------
I didn't see no writing on the wall

Guitar 1
Eb---7----|-----------|--4---|---------2----|------------------
Bb---7----|----5------|--4---|---------2----|----5-------------
F----5----|----5------|--2---|---------0----|----5-------------
C---------|----3------|------|--------------|----3-------------

Guitar 2
Eb---7----|----7------|--7---|------9-------|----12------------
Bb--------|-----------|------|--------------|----12------------
F----5----|----4------|--5---|------7-------|----10------------
You were the man that I thought that I wanted to be


Eb---7----|-------6--4--|--------------------2-----------------
Bb---7----|-------6--4--|--------------------2---5-------------
F----5----|-------4--2--|--------------------0---5-------------
C---------|-------------|------------------------3-------------
I miss having you around Now you're six feet underground

Eb--------|-------------|------7-------------------------------
Bb--------|-------------|------7-------5-----------------------
F---------|-------------|------5-------5-----------------------
C---------|-------------|--------------3-----------------------
When I was 17 you were all I wanted to be

Eb---7----|-------6--4--|--------------------2-----------------
Bb---7----|-------6--4--|--------------------2---5-------------
F----5----|-------4--2--|--------------------0---5-------------
C---------|-------------|------------------------3-------------
I won't be seeing you no more I never realised before

Eb--------|-------------|------7-------------------------------
Bb--------|-------------|------7-------5-----------------------
F---------|-------------|------5-------5-----------------------
C---------|-------------|--------------3-----------------------
That all the things you showed me were so important to me

(Verse 2)
Eb---7-------------------------4-------------------------------
Bb---7-------------------------4-------------------------------
F----5-------------------------2-------------------------------
I miss the twisted conversation

Eb---------------7---------------------------------------------
Bb---5-----------7-------------7-------------------------------
F----5-----------5-------------7-------------------------------
C----3-------------------------5-------------------------------
And drinking 'til we couldn't drink no more

Eb---7-------------------------4-------------------------------
Bb---7-------------------------4-------------------------------
F----5-------------------------2-------------------------------
I wish I had the inspiration

Eb---------------7---------------------------------------------
Bb---5-----------7-------------7-------------------------------
F----5-----------5-------------7-------------------------------
C----3-------------------------5-------------------------------
That part of me left hanging in your hall

Guitar 1
Eb---7----|-----------|--4---|---------2----|------------------
Bb---7----|----5------|--4---|---------2----|----5-------------
F----5----|----5------|--2---|---------0----|----5-------------
C---------|----3------|------|--------------|----3-------------

Guitar 2
Eb---7----|----7------|--7---|------9-------|----12------------
Bb--------|-----------|------|--------------|----12------------
F----5----|----4------|--5---|------7-------|----10------------
You were the man that I thought that I wanted to be


Eb---7----|-------6--4--|--------------------2-----------------
Bb---7----|-------6--4--|--------------------2---5-------------
F----5----|-------4--2--|--------------------0---5-------------
C---------|-------------|------------------------3-------------
I miss having you around Now you're six feet underground

Eb--------|-------------|------7-------------------------------
Bb--------|-------------|------7-------5-----------------------
F---------|-------------|------5-------5-----------------------
C---------|-------------|--------------3-----------------------
When I was 17 you were all I wanted to be

Eb---7----|-------6--4--|--------------------2-----------------
Bb---7----|-------6--4--|--------------------2---5-------------
F----5----|-------4--2--|--------------------0---5-------------
C---------|-------------|------------------------3-------------
I won't be seeing you no more I never realised before

Eb--------|-------------|------7-------------------------------
Bb--------|-------------|------7-------5-----------------------
F---------|-------------|------5-------5-----------------------
C---------|-------------|--------------3-----------------------
That all the things you showed me were so important to me

(solo)
Eb-----------|-------------|---------7-------|-----------------
Bb--5-4-2----|---4----5----|--7--9---7---7---|-----------------
F---5-4-2----|---4----5----|--7--9---5---7---|-----------------
C---3-2-0----|---2----3----|--5--7-------5---|-----------------

Eb-----------|-------------|---------7-------|---7-------------
Bb--5-4-2----|---4----5----|--7--9---7---7---|---7--5----------
F---5-4-2----|---4----5----|--7--9---5---7---|---5--5----------
C---3-2-0----|---2----3----|--5--7-------5---|------3----------

(guitar 2)
C------------|-------------|-----------------|-----------5-----
G------------|-------------|--0----3---------|--3--5(b)7-------
Eb-----------|----2---4----|----------2------|-----------------
Bb--2--/4----|-0---------2-|-----------------|-----------------
F----------2-|-------------|-----------------|-----------------
C------------|-------------|-----------------|-----------------

(guitar 2)
C------------|-------------|-----------------|-----------------
G--7(r)5-----|--3-2-3^^^^--|-----------------|-----------------
Eb-----------|-------------|-----------------|-----------------
Bb-----------|-------------|-----------------|-----------------
F------------|-------------|-----------------|-----------------
C------------|-------------|-----------------|-----------------


Eb---7----|-------6--4--|--------------------2-----------------
Bb---7----|-------6--4--|--------------------2---5-------------
F----5----|-------4--2--|--------------------0---5-------------
C---------|-------------|------------------------3-------------
I miss having you around Now you're six feet underground

Eb--------|-------------|------7-------------------------------
Bb--------|-------------|------7-------5-----------------------
F---------|-------------|------5-------5-----------------------
C---------|-------------|--------------3-----------------------
When I was 17 you were all I wanted to be

Eb---7----|-------6--4--|--------------------2-----------------
Bb---7----|-------6--4--|--------------------2---5-------------
F----5----|-------4--2--|--------------------0---5-------------
C---------|-------------|------------------------3-------------
I won't be seeing you no more I never realised before

Eb--------|-------------|------7-------------------------------
Bb--------|-------------|------7-------5-----------------------
F---------|-------------|------5-------5-----------------------
C---------|-------------|--------------3-----------------------
That all the things you showed me were so important to me

Eb---7-----
Bb---7-----
F----5-----
Not sent from my fucking iphone.

The Wicked Mod of the South.

Go here you might like it.
http://z6.invisionfree.com/Eureka_Machines/index.php
User avatar
Sarc
 
Posts: 2822
Joined: 25th Apr 07, 21:27
Location: Brighton

Postby VladDracii » 23rd Nov 09, 06:53

Sarc wrote:This was a bitch to do so the riff before the verse and the last part of the chorus is probably completely wrong.

Code: Select all
Tim Smith

E = C
A = F
D = Bb
G = Eb
B = G
e = C

Guitar 1                   Guitar 2
C------------------------|-----10(b)12---10(b)12----
G------------------------|--------------------------
Eb-----------------------|--------------------------
Bb-3-3-3-2------3-3-3-2--|--------------------------
F--3-3-3-2------3-3-3-2--|--------------------------
C--1-1-1-0------1-1-1-0--|--------------------------



Try a unison bend here up the fretboard on the two highest strings, as opposed to just the 'e'
Those of you Facebookers may be wondering what Mr. Robin Guy is up to? http://www.facebook.com/robinguydrummer?ref=ts
VladDracii
 
Posts: 296
Joined: 23rd Apr 08, 18:13
Location: Eastbourne

PreviousNext

Return to Wildhearts Music and General Chat

Who is online

Users browsing this forum: No registered users and 6 guests