Page 1 of 11

Guitar Tabs

PostPosted: 7th Feb 08, 20:52
by wildsam6o
hey all

every one knows that wildhearts tabs are pretty hard to come by! well........b-side stuff!

can anybody help me with b-side tabs

especially:-

show a little emotion
2 way idiot mirror
bang!


ive been looking for wile and i cant seem to figure them out!

cheers! :D

See also this thread for Chutzpah! Tabs.

And Search Tabs in Wildhearts for others.

PostPosted: 7th Feb 08, 21:57
by Ean
Righty ho...

Code: Select all
Show A Little Emotion

The Wildhearts

Tune down to Eb

D                A           F#-G                  F#-G
Top to tail with good advice.    To get to know me.    If I could only be
  D                    A            F#-G                F#-G
A little bit more like Jesus Christ.    Is that so easy?    You know the lady likes
Bm       A       G          D
Passion, wisdom, wealth and wonder
Bm     A       G      D
Custom made at retail price
        E
Well it all sounds good to me
          G
And it'll happen naturally if you

D(WITH RIFF A)      A                      G                     D  A
Show a little love, show a little emotion, it ain't a sin to be crying
D                   A                      G           C             G
Show a little pain, show a little emotion baby, maybe show a little love for

D                   A              F#-G                       F#-G
Take one chance you could be right.    So what's your problem?    You're only softening
D                         A            F#-G                   F#-G
The pressures of one more lonely night.    But that's so easy.    We know the lady likes
Bm        A        G        D
Pleasures found in downtown places
Bm      A            G         D
Whiskey straight and drugs for free
      E
Where folks don't really care
              G
But there's a sense of style you share if you

D(WITH RIFF A)      A                      G                     D  A
Show a little love, show a little emotion, it ain't a sin to be crying
D                   A                      G                  C             G        D
Show a little pain, show a little emotion baby, 'n you could show a little love for me

(WITH RIFF B)  A                   D
You say you're mine, but you don't show it.
            A          G   G D
You say I'm blind, and man I know it.
          A                                  Bm                           E
But I can show my feelings aloud without the fear of splitting with the crowd.
   G                   A
So baby, don't say you love me.

               Bm               A                    G            D
Because you're scared of giving friendship 'case you never get it back
   Bm         A                G                D
Mistaking independence for the courage that you lack
      Bm            A              G              D
You're terrified of missing out on changes in the scene
       Bm               A                G            D
So you cling on to your status like some life-support machine
     Bm(WITH RIFF C) A                G                 D
'Cos weakness is too feminine, you're dressed up like a boy
         Bm             A            G              D
'Til you get so fucking down, you forgot what girls enjoy
    E           F#m           G                           A
You realise the compromise is not what they said it would be
                C
So why dont you show me.... c'mon

D(WITH RIFF A)      A                      G                     D  A
Show a little love, show a little emotion, it ain't a sin to be crying
D                   A                      G               C             G
Show a little pain, show a little emotion baby, you could show a little love
C             G        D  C#  C  B
Show a little love for


RIFF A
  D                 A                 G                 D       A
e-10------10------|-9-------9-------|-10------10------|-10------9-------|
B-----10------10--|-----10------10--|-----10------10--|-----10------10--|
G-----------------|-----------------|-----------------|-----------------|
D-----------------|-----------------|-----------------|-----------------|
A-----------------|-----------------|-----------------|-----------------|
E-----------------|-----------------|-----------------|-----------------|

  D                 A                 G                 C       G
e-10------10------|-9-------9-------|-----------------|-----------------|
B-----10------10--|-----10------10--|-8---------------|-----------------|
G-----------------|-----------------|-----------------|-5---------------|
D-----------------|-----------------|-----------------|-5-------5-------|
A-----------------|-----------------|-----------------|-3-------5-------|
E-----------------|-----------------|-----------------|---------3-------|

RIFF B
  A                 A                 D                 D
e-----------------|-----------------|-----------------|-----------------|
B-----------------|-----------------|-----------------|-----------------|
G---------------2-|---------------2-|---7-5-4---------|---7-5-4---------|
D---------2-2-4---|---------2-2-4---|-0-------7-5-3-4-|-0-------7-5-3-4-|
A-0-0-3-4---------|-0-0-3-4---------|-----------------|-----------------|
E-----------------|-----------------|-----------------|-----------------|

  A                 A       G   G     D                 D
e-----------------|-----------------|-----------------|-----------------|
B-----------------|-----------------|-----------------|-----------------|
G---------------2-|-----------------|---7-5-4---------|---7-5-4---------|
D---------2-2-4---|---------5---5---|-0-------7-5-3-4-|-0-------7-5-3-4-|
A-0-0-3-4---------|-0-0-3-0-5---5---|-----------------|-----------------|
E-----------------|-----------------|-----------------|-----------------|

RIFF C
  Bm      A         G       D         Bm      A         G       D
e-----------------|-----------------|-----------------|-----------------|
B-----------------|-----------------|-----------------|-----------------|
G-4-------6-------|-7-------7-------|-4-------6-------|-7-------7-------|
D-----------------|-----------------|-----------------|-----------------|
A-2-------4-------|-5-------5-------|-2-------4-------|-5-------5-------|
E-----------------|-----------------|-----------------|-----------------|

Tab by Ean (ean.coombs@googlemail.com)


Code: Select all
Two-Way Idiot Mirror

The Wildhearts

Tune down to Eb

SEGUE FROM 'BEAUTIFUL THING YOU'

D (let ring)

SYNTH BASS
                                                                  REPEAT x4
G-----------------|-----------------|-----------------|------------------||
D---0-0---0-0---0-|-0---0-0---0---0-|---0-0---0-0---0-|-0---0-0---0---0-O||
A-------------0---|---3-----0-------|-------------0---|---3-----0-------O||
E-2-----3---------|-------------3---|-2-----3---------|-------------3----||

ELECTRIC BASS

G-----------------|-----------------|-----------------|-----------------|
D-----------------|-----------------|-----------------|-----------------|
A-5-5-5-5-5-5-5-5-|-5-5-5-5-5-5-5-5-|-5-5-5-5-5-5-5-5-|-5-5-5-5-5-5-5-5-|
E-----------------|-----------------|-----------------|-----------------|

D
Do-do do-do do-do do-do do do
G                C
Do-do do-do do-do do-do do do
D
Do-do do-do do-do do-do do do
G                C
Do-do do-do do-do do-do do do
D         
Do-do do-do do-do do-do do do
G                C
Do-do do-do do-do do-do do do

  D
G-----------------|-----------------|-----------------|-----------------|
D---0-0---0-0---0-|-0---0-0---0---0-|---0-0---0-0---0-|-0---0-0---0---0-|
A-------------0---|---3-----0-------|-------------0---|---3-----0-------|
E-2-----3---------|-------------3---|-2-----3---------|-------------3---|

        D
And I'm fine, getting by,

I only think about you once in a while
         C
That was then, not today,
          G                  A   Bb
You never listened to a word I'd say
C      D
I gave faith, gave you trust,

I gave you friendship and it's never enough
        C
Give me time, give me space,
            G
Give me the line that we had

When we knew our place

G                 E           D
So try to make it easy on yourself,

It'll work OK
G                 A              Bb
Just last week as I was cleaning shit
            C
From off my shelf

          D             G         E
I found a photograph of someone I knew
A            G    Bb           D    A
Someone like you, someone like me
          D             G         E
I found a photograph of someone I knew
A            G   Bb   C  D
Someone like you used to be

D
Do-do do-do do-do do-do do do
G                C
Do-do do-do do-do do-do do do
D
Do-do do-do do-do do-do do do
G                C
Do-do do-do do-do do-do do do

        D
You get wise, you get old,

You stop believing in opinions you're sold
       C
Heaven knows, you're divine,
                G                 A   Bb
You've got your fingers in the public mind
C         D
And then, shock open wire,

You've got your dick a little close to the fire
          C
You're an asshole again
               G
And now you're back to where you're learning

That the problem isn't them

G                 E           D
So try to make it easy on yourself,

It'll work OK
G                 A
Just last week as I was getting
Bb               C
Close to someone else

          D             G         E
I found a photograph of someone I knew
A            G    Bb           D    A
Someone like you, someone like me
          D             G         E
I found a photograph of someone I knew
A            G   Bb   C  D
Someone like you used to be

        A           G           D
Used to be, used to be, used to be
        A           G
Used to be, used to be

D
Do-do do-do do-do do-do do do
G                C
Do-do do-do do-do do-do do do
D
Do-do do-do do-do do-do do do
G                C
Do-do do-do do-do do-do do do
F                C
Do-do do-do do-do do-do do do
G                C
Do-do do-do do-do do-do do do

  D   D   D   D D   D   D   D   D D   D   D   D   D D   D   D   D   D D
G-----------------|-----------------|-----------------|------------------||
D---0-0---0-0---0-|-0---0-0---0---0-|---0-0---0-0---0-|-0---0-0---0---0-O||
A-------------0---|---3-----0-------|-------------0---|---3-----0-------O||
E-2-----3---------|-------------3---|-2-----3---------|-------------3----||

   D                 E           D
So stop, and make it easy on yourself,

It'll work OK
     G              A
'Cos no-one hates a fuck up
              Bb                C
'less they're all fucked up themselves


          D             G         E
I found a photograph of someone I knew
A            G    Bb           D    A
Someone like you, someone like me
          D             G         E
I found a photograph of someone I knew
A            G   Bb   C  D
Someone like you used to be

Bb   C  F
Used to be
F    C  G
Used to be
Bb   C  D  C# C  G  Bb  A
Used to be


Tab by Ean (ean.coombs@googlemail.com)


Code: Select all
Bang!

The Wildhearts

Tune to Eb

Intro
  E                C#               D                A
e--------|-------|--------|-------|--------|-------|--------|-------|
B-10--9--|-7--5--|-10--9--|-7--5--|-10--9--|-7--5--|-10--9--|-7--5--|
G--------|-------|--------|-------|--------|-------|--------|-------|
D--------|-------|--------|-------|--------|-------|--------|-------|
A--------|-------|--------|-------|--------|-------|--------|-------|
E--------|-------|--------|-------|--------|-------|--------|-------|

VERSE 1
[PM]
E                               C#
You can’t see the candy for the razors
                   D
You’re never gonna faze her
              A
With what you say
E                           C#
She’s got a certain kind of something
                      D
And I do believe it’s working
            A
So what the hey?

PRE
F#               A
Come the way you are
                (Come the way you are)
E                B
Come the way you please
                (Come the way you please)
G#               A
Come the way you were
         E                B
When you brought me to my knees
      F#              A
Let’s stay the way we are
                     (Stay the way we are)
      E               B
Let’s stay the way we please
                     (Stay the way we please)
G#                 A
When we’re staying calm,
         E            B
We don’t seem like enemies

CHORUS
         A
And then bang!
       E              B  A
Like a missile nixing my plan
               E                  B   A
You fixed this son of a bitch and God damn
              E
You made me a man,
    D                   G    B
God damn, you made me a man
A            E              B  A
Bang! Like a missile nixing my plan
               E                  B   A
You fixed this son of a bitch and God damn
              E
You made me a man,
    D                   G
God damn, you made me a man
              A
You made me a man
              E
You made me a man

INTRO x1

VERSE 2
[PM]
E                     C#
I tried everything to warn her
                    D
But she got me in a corner
            A
And made me smile
    E                   C#
And I can’t see me ever leaving
                  D
So long as she is breathing
                  A
So long as she is mine

PRE
F#               A
Come the way you are
                (Come the way you are)
E                B
Come the way you please
                (Come the way you please)
G#               A
Come the way you were
         E                B
When you brought me to my knees
      F#              A
Let’s stay the way we are
                     (Stay the way we are)
      E               B
Let’s stay the way we please
                     (Stay the way we please)
G#                 A
When we’re staying calm,
         E            B
We don’t seem like enemies

CHORUS
         A
And then bang!
       E              B  A
Like a missile nixing my plan
               E                  B   A
You fixed this son of a bitch and God damn
              E
You made me a man,
    D                   G    B
God damn, you made me a man
A            E              B  A
Bang! Like a missile nixing my plan
               E                  B   A
You fixed this son of a bitch and God damn
              E
You made me a man,
    D                   G
God damn, you made me a man
              A
You made me a man
              E
You made me a man

E(7TH fret) C# B
E           C# B

(NOT ENTIRELY SURE ABOUT THIS PHRASE)

E     D  A
Yeeeeaaaaaaaahhhhhhhh!!!!
E     D  A
E     D  A
E     D  A

E     G  A (I think)
E     G  A
E     G  A
E     G  A

CHORUS
         A
And then bang!
       E              B  A
Like a missile nixing my plan
               E                  B   A
You fixed this son of a bitch and God damn
              E
You made me a man,
    D                   G    B
God damn, you made me a man
A            E              B  A
Bang! Like a missile nixing my plan
               E                  B   A
You fixed this son of a bitch and God damn
              E
You made me a man,
    D                   G
God damn, you made me a man
              A
You made me a man
              E
You made me a man

Tab by Ean (ean.coombs@googlemail.com)


Check out this post for links to loads of tabs. :D

PostPosted: 8th Feb 08, 13:15
by Ross
Ean, you rule! I'm so trying those out this weekend!

PostPosted: 8th Feb 08, 15:47
by Ean
I've substituted a better version of Show A Little Emotion :) .

PostPosted: 8th Feb 08, 18:10
by zachary_storm
Ean wrote:I've substituted a better version of Show A Little Emotion :) .


Oooohh...! :?:

PostPosted: 8th Feb 08, 18:12
by Ean
zachary_storm wrote:
Ean wrote:I've substituted a better version of Show A Little Emotion :) .


Oooohh...! :?:


Eh? :?

PostPosted: 8th Feb 08, 18:16
by zachary_storm
Ha! sorry... not so sure myself aboot that one! Shall call back when the brains back! *Taxi for one!* :coat:

PostPosted: 8th Feb 08, 18:23
by Ean
zachary_storm wrote:*Taxi for one!*


One o clock??? Thats far too early!

Wait... haven't we been here before? :shock:

PostPosted: 8th Feb 08, 18:25
by Sarc
Ean wrote:
zachary_storm wrote:*Taxi for one!*


One o clock??? Thats far too early!

Wait... haven't we been here before? :shock:


Ean, sort him out will ya, he's stealing all my lines.

PostPosted: 8th Feb 08, 18:26
by zachary_storm
Goddamn It... I think we're in a repeat... i HATE repeats! :evil:

PostPosted: 8th Feb 08, 18:27
by Sarc
zachary_storm wrote:Goddamn It... I think we're in a repeat... i HATE repeats! :evil:

You'll probably not like the hidden track at the end of Ginger's albums that bares the title Same Again then

PostPosted: 8th Feb 08, 18:35
by zachary_storm
ah you cant get me wi that one... & my arms are aching now... stretching over from this corner!

PostPosted: 10th Feb 08, 12:05
by Lord Iffy Boatrace
fantastic work Ean. you aint got Lake of Piss have you? :D

PostPosted: 10th Feb 08, 12:47
by Sarc
Lord Iffy Boatrace wrote:fantastic work Ean. you aint got Lake of Piss have you? :D


He did but the tablets cleared it up.

PostPosted: 10th Feb 08, 13:01
by Lord Iffy Boatrace
haha