Guitar Tabs

Albums, singles, songs and general Wildhearts banter

Re: Guitar Tabs

Postby Ean » 4th Dec 10, 21:36

This get you started? ;)

Code: Select all
DREAMiNG iN A...

THE WiLDHEARTS

Tune to Eb

Intro:   
        A A  E                D  D  A
Eb-----------------0----------2--2-----------5------------
Bb--------------------0-------3--3--------------5---------
Gb------2-2--1------------1-1-2--2--2-----------------2-2-
Db------2-2--2------------2-2-0--0--2-----------------2-2-
Ab------0-0--2------------2-2-------0-----------------0-0-
Eb-----------0------------0-0-----------------------------

        A A  E                D  D  A
Eb-----------------0----------2--2-----------5------------
Bb--------------------0-------3--3--------------5---------
Gb------2-2--1------------1-1-2--2--2---------------------
Db------2-2--2------------2-2-0--0--2---------------------
Ab------0-0--2------------2-2-------0---------------------
Eb-----------0------------0-0-----------------------------

The second guitar plays an octave melody, shown here :

Eb-------------------------------------------------------------------
Bb-------------------------------------------------------------------
Gb-----6-6-6--7--9--13--13--13--13--13----13--14--13-11--9--9-9-9-9--
Db-------------------------------------------------------------------
Ab-----4-4-4--5--7--11--11--11--11--11----11--12--11-9---7--7-7-7-7--
Eb-------------------------------------------------------------------

A           E        D       A
And now I'm fine, my mind is clear
A           E       D        A
And nothing bad can touch me here
A           E                  F#       D
It's all so right, it's all so beautiful
   A                    E                        A
So maybe tomorrow ain't worth coming down for at all

A           E       D       A
I'm feeling warm, I want to stay
A         E       D         A
I want to live my life this way
A          E               F#               D
Protect me still, oh, as I slowly drift and fall
   A                    E                        A
So maybe tomorrow ain't worth coming down for at all

          B E             D   A
And I can be the child in me
   B                 
To run with the wind,
   F#                   
To dance with the light,
   G          D
To be forever free

  D    A   E
I hear the ground (I hear the ground),
  D         A   
I taste the air (I taste the air)
    A        E
For just one night (for just one night),
    D       A
But I don't care (but I don't care)
    D    A        E
I'm five miles... high
              F#            D
And here I'll climb forever tall
   A                    E                        F#    B
So maybe tomorrow ain't worth coming down for at all
    D           A
And leave it all...
Ean Ü

"I have to go along with all this reclusive genius stuff... she's going to be very upset when she finds out I'm a reclusive wanker."
User avatar
Ean
Moderator
 
Posts: 4040
Joined: 10th Feb 06, 14:44
Location: Just next to my confuser

Re: Guitar Tabs

Postby Velvet Presley » 4th Dec 10, 22:52

Cor blimey, you don't waste any time do you chief?

Thanks though...

Years ago, maybe, I seem to recall downloading a nice little zip file with a bunch of tabs in it, including some SG5 and Clam Abuse stuff. Anyway, I've since moved and got a new computer and I can't find it. I'm adamant that I downloaded it from this site but I had a little search and I can't find it - have you got any ideas where I should be looking?
Velvet Presley
 
Posts: 220
Joined: 2nd May 07, 11:00
Location: Edinburgh via Newcastle

Re: Guitar Tabs

Postby Ean » 4th Dec 10, 22:59

It's been knocking about for ages. Might even be up here somewhere.

It might be the one in the LiST files:

http://launch.groups.yahoo.com/group/Wi ... files/Tab/

Probably a few more I need to add to it by now, but they're all up on here anyway.
Ean Ü

"I have to go along with all this reclusive genius stuff... she's going to be very upset when she finds out I'm a reclusive wanker."
User avatar
Ean
Moderator
 
Posts: 4040
Joined: 10th Feb 06, 14:44
Location: Just next to my confuser

Re: Guitar Tabs

Postby SkyNorton » 27th Dec 10, 13:24

ladies and gentlemen, as my first post on the forums, i submit to you my somewhat amature, and new spin on the intro to "Just in Lust".
this is my first attempt at tabbing anything out, so kill me if necessary, idgaf.
Code: Select all
Just In Lust intro Revised by SkyNorton

Tuned a half step down, might not be correct, but it worked for me.
i figured this needed to be a bit simpler given the style that Ginger

carries in his music, those of you that have trouble with the other tab

that rich posted may find this easier.

                    [1.
E||-3-3-3-3-|3---3---|2-2----2-|--------|--------|
B||-3-3-3-3-|3---3---|3-3----3-|--------|5-5-5-5-|
G||---------|--0---0-|-----2---|2-2-2-2-|2-2-2-2-|
D||---------|--------|---------|--------|--------|
A||---------|--------|---------|--------|--------|
E||---------|--------|---------|--------|--------|
 
E||--------|3-3---3-|---------||
B||5---5---|2-2---2-|--5-sl-3-||
G||2-2---2-|----2---|2-4-sl-2-||
D||--------|--------|---------||
A||--------|--------|---------||
E||--------|--------|---------||
  [2.
E||--------|------------|---------|3-3---3-|--------|
B||----5---|5-5---5-sl-7-sl-5-5---|3-3---3-|3-3-3-3-|
G||2-2-2-2-|2-2-2-2-sl-4-sl-2-2---|2-2-0-2-|0-0-0-0-|
D||--------|------------|---------|--------|--------|
A||--------|------------|---------|--------|--------|
E||--------|------------|---------|--------|--------|

E||3-3-3---|3-3-3----|--------|---------|
B||3-3-3-3-|3-3-3----|3-3-3-3-|3-3-3----|
G||------0-|---------|0-0-0-0-|0-0-0----|
D||--------|---------|--------|---------|
A||--------|---------|--------|---------|
E||--------|---------|--------|---------|
credits to rich byrne (babelrich@yahoo.com) for giving me something to work

off of
SkyNorton
 
Posts: 2
Joined: 27th Dec 10, 13:16

Re: Guitar Tabs

Postby tommycraven » 12th Jan 11, 23:47

these tabs all look awesome, thanks to people for making them! :)

Does anyone have a tab or chords for Anthem?
User avatar
tommycraven
 
Posts: 5
Joined: 10th Apr 06, 22:48
Location: Guernsey, CI

Re: Guitar Tabs

Postby Gladney » 28th Aug 11, 03:56

hi guys, been trying to work out the chords for beautiful thing you on and off for the last 2 or so years but to no avail as I have a pretty bad ear for anything with distortion!! ( dunno why!) Ive always loved the song but this summer i met a girl in america and have fallen madly in love with her and shes coming to visit me in ireland this coming december and Beautiful thing you has become even more special to me as it sums our relationship up perfectly. Id be ever so grateful if someone could help me out with this and post the tabs including solos/melodies or at the very least the basic chords for the song as I want to perform it with my band as we will more than likely have a gig or two around new years and I want to dedicate it to her. Thanks for reading and hopefully you can help me out :) cheers
Gladney
 
Posts: 22
Joined: 14th Sep 09, 20:41
Location: Kilkenny, Ireland

Re: Guitar Tabs

Postby Lord Iffy Boatrace » 28th Aug 11, 09:24

Code: Select all
Beautiful Thing You

THE WiLDHEARTS

Tune to Eb

INTRO                               
| E               |                 | F#              |                 |
|-----------------|-----------------|-----------------|-----------------|
|-----------------|-----------------|-----------------|-----------------|
|-----------------|-----------------|-----------------|-----------------|
|---------------2-|---2-----2-------|---------------2-|---2-----2-------|
|-------0-2-4-0---|-------4-----4---|-------0-2-4-0---|-------4-----4---|
|-0---------------|-----------------|-2---------------|-----------------|

| A               |                 | E               |                 |
|-----------------|-----------------|-----------------|-----------------|
|-----------------|-----------------|-----------------|-----------------|
|-----------------|-----------------|-----------------|-----------------|
|---------------2-|---2-----2-------|---5---4-5-4-2---|---5---4-5-4-2---|
|-0-----0-2-4-0---|-------4-----4---|---------------4-|---------------4-|
|-----------------|-----------------|-----------------|-----------------|

| E               |                 | F#              |                 |
|-----------------|-----------------|-----------------|-----------------|
|-----------------|-----------------|-----------------|-----------------|
|-----------------|-----------------|-----------------|-----------------|
|---------------2-|---2-----2-------|---------------2-|---2-----2-------|
|-------0-2-4-0---|-------4-----4---|-------0-2-4-0---|-------4-----4---|
|-0---------------|-----------------|-2---------------|-----------------|
|(RIFF 1)                                                               |
|-----------------|-----------------|-----------------|-----------------|
|-----------------|-----------------|-----------------|-----------------|
|---9-9-9-9-8-8-8-|-8-9-9-9-9-8-8-8-|-8-9-9-9-9-8-8-8-|-8-9-9-9-9-8-8-8-|
|-----------------|-----------------|-----------------|-----------------|
|---7-7-7-7-6-6-6-|-6-7-7-7-7-6-6-6-|-6-7-7-7-7-6-6-6-|-6-7-7-7-7-6-6-6-|
|-----------------|-----------------|-----------------|-----------------|

| A               |                 | E               |         A   G#  |
|-----------------|-----------------|-----------------|-----------------|
|-----------------|-----------------|-----------------|-----------------|
|-----------------|-----------------|-----------------|-----------------|
|---------------2-|---2-----2-------|---5---4-5-4-2---|---5---4-5-4-2---|
|-0-----0-2-4-0---|-------4-----4---|---------------4-|---------------4-|
|-----------------|-----------------|-----------------|-----------------|
|(RIFF 1)                                                               |
|-----------------|-----------------|-----------------|-----------------|
|-----------------|-----------------|-----------------|-----------------|
|-8-9-9-9-9-8-8-8-|-8-9-9-9-9-8-8-8-|-8-9-9-9-9-8-8-8-|-8-9-9-9-9-8-8-8-|
|-----------------|-----------------|-----------------|-----------------|
|-6-7-7-7-7-6-6-6-|-6-7-7-7-7-6-6-6-|-6-7-7-7-7-6-6-6-|-6-7-7-7-7-6-6-6-|
|-----------------|-----------------|-----------------|-----------------|

[F#]                       [C#]    
And in the time it takes to feel,
[C#][B]    [A]              [E]          [B]
I  could swear that you get closer every day
[A][G#][F#]                           [C#]
And my  only hope is when it all comes real,
[C#][B]    [A]             [E]          [B]   [B][Bb]
I   don't fuck it up and throw it all away
[A]        [E]           [B]                 [A]
'Cos every time the chaos starts (time after time)
         [E]             [B]
A message screams into my heart
      [C#]      [D]   [A]
We're always an ocean apart. You're always in my heart

CHORUS
[E]                       [F#]
Oh-woah-woah you beautiful thing you
              [A]                      [E]  [A]  [E]  [A]  [E] [A][A][A]
You beautiful thing you, you beautiful thing
[E](W/RIFF 1)              [F#]
Oh-woah-woah you beautiful thing you
              [A]     [Dsus4]           [E]
You beautiful thing you,   you beautiful thing

[A][G#]       [F#]                              [C#]
      And I console myself when life is throwing spears,
[C#]   [B][A]           [E]           [B]
There's a growing of the spirit deep inside
[A][G#]   [F#]                                [C#]
   And the part of me that smells you getting near,
[C#][B][A]          [E]               [B]    [B][Bb]
Trying  patiently to break the great divide
[A]      [E]              [B]                 [A]
And if I fall I won't look down (I'll face the sky)
              [E]         [B]
I'll be there second time around
   [C#]        [D]          [A]
To practice the balance I've found, I'll always be around

CHORUS
[E]                        [F#]
Oh-woah-woah you beautiful thing you
              [A]                      [E]  [A]  [E]  [A]  [E] [A][A][A]
You beautiful thing you, you beautiful thing
[E](W/RIFF 1)              [F#]
Oh-woah-woah you beautiful thing you
              [A]     [Dsus4]           [E]
You beautiful thing you,   you beautiful thing



|                |F#              |                |C#              |                |
|----------------|----------------|----------------|----------------|----------------|
|----------------|----------------|----------------|----------------|----------------|
|----------------|----------------|----------------|----------------|----------------|
|--------7---6---|6-4-------------|------4---6---7-|7-6-------------|----------6---4-|
|----------------|----------------|----------------|----------------|----------------|
|----------------|----------------|----------------|----------------|----------------|

|A               |E               |B               |        A   E   |
|----------------|----------------|----------------|----------------|
|----------------|----------------|----------------|----------------|
|----------------|----------------|----------------|----------------|
|4-2-----------7-|7-6-----------6-|6-4-------------|--------7---6---|
|----------------|----------------|----------------|----------------|
|----------------|----------------|----------------|----------------|

|F#              |                |C#              |                |
|----------------|----------------|----------------|----------------|
|----------------|----------------|----------------|----------------|
|----------------|----------------|----------------|----------------|
|6-4-------------|------4---6---7-|7-6-------------|----------6---4-|
|----------------|----------------|----------------|----------------|
|----------------|----------------|----------------|----------------|

|A               |E               |B               |        B   Bb  |
|----------------|----------------|----------------|----------------|
|----------------|----------------|----------------|----------------|
|----------------|----------------|----------------|--------------9-|
|4-2-----------7-|7-6-----------6-|6-4-------------|----------9-11--|
|----------------|----------------|----------------|----------------|
|----------------|----------------|----------------|----------------|

|A               |E               |A               |E               |
|----------------|----------------|----------------|----------------|
|----------------|----------------|----------------|----------------|
|----------------|9---------------|----------------|----------------|
|---11-9-11--9-11|---11-9-11-9----|----------------|6---7-6-9-6-----|
|----------------|-------------9-7|9---9---7---9-7-|------------7---|
|----------------|----------------|----------------|----------------|

|A               |E               |A               |C#      D       |A
|----------------|----------------|----------------|----------------|----------------|
|----------------|9---------10-9--|12------10-9----|----------------|----------------|
|---9----9-----9-|----------------|-------------11-|13-11-9-11------|----------------|
|11---------11---|----------------|----------------|-----------11-9-|11-9-7----------|
|----------------|----------------|----------------|----------------|----------------|
|----------------|----------------|----------------|----------------|----------------|
                      Always an ocean apart...


You're always in my heart

CHORUS
[E](W/RIFF 1)              [F#]
Oh-woah-woah you beautiful thing you
              [A]                      [E]  [A]  [E]  [A]  [E] [A][A][A]
You beautiful thing you, you beautiful thing
[E](W/RIFF 1)              [F#]
Oh-woah-woah you beautiful thing you
              [A]     [Dsus4]            [E]
You beautiful thing you,   you beautiful thing
                     [Dsus4]             [E]
(You beautiful thing)      you beautiful thing
                     [Dsus4]             [E]
(You beautiful thing)      you beautiful thing


Tab By Ean (ean.coombs@gmail.com)
Lord Iffy Boatrace
 
Posts: 84
Joined: 20th Feb 06, 12:49
Location: East Kilbride, Scotland

Re: Guitar Tabs

Postby Gladney » 28th Aug 11, 13:41

lord iffy you are a fucking godsend!!!! thanks for making my day :)
Gladney
 
Posts: 22
Joined: 14th Sep 09, 20:41
Location: Kilkenny, Ireland

Re: Guitar Tabs

Postby Lord Iffy Boatrace » 28th Aug 11, 14:29

thanks mate, but i didnt write the tab. just posted it. credit must go to Ean :)
Lord Iffy Boatrace
 
Posts: 84
Joined: 20th Feb 06, 12:49
Location: East Kilbride, Scotland

Re: Guitar Tabs

Postby hertjies » 25th Jan 12, 19:42

Hi Guys/Gals

New to the forums, just got into The Wildhearts. :bounce: Im trying to figure out Slaughtered Authors, could someone please post the guitar tabs, it would be greatly appreciated.

Thanks :mrgreen:
hertjies
 
Posts: 1
Joined: 25th Jan 12, 18:45

Re: Guitar Tabs

Postby WGB » 27th Aug 12, 01:18

Anyone got White album tabs, preferably Bi polar baby and the hard way. Although Destroy all monsters would be lovely as well.
WGB
 
Posts: 1
Joined: 20th Apr 11, 15:40

Re: Guitar Tabs

Postby Levari » 21st May 13, 16:30

Whoa! awesome I've been looking for tabs to Mazel Tov Cocktail for a while, dunno why the hell I didn't check this place out first?

Thanks for the tabbers!
Levari
 
Posts: 1
Joined: 21st May 13, 16:25

Re: Guitar Tabs

Postby BeardFaceMan » 9th Jun 13, 10:35

This is an amazing thread, has really helped me out a lot. I would've thought that all of Earth Vs would have been tabbed out by now but I'm having real trouble finding some tab for Shame On Me. Can anyone help me out? Cheers.
BeardFaceMan
 
Posts: 1
Joined: 9th Sep 11, 11:32

Previous

Return to Wildhearts Music and General Chat

Who is online

Users browsing this forum: No registered users and 1 guest

cron